Guitar Tabs, Chords and Lyrics


Nothing   Unknown



Band:A 
Song:nothing

^:downwards strike
V:upwards strike

Main Riff:

    F#5                                                                                            
     ^  V  ^ V         gimme me some love...                                                                 
 E --------------------------------------------------|
 B --------------------------------------------------|
 G --------------------------------------------------|
 D --4---4---4---4-----------------------------------|
 A --4---4---4---4-----------------------------------|
 E --2---2---2---2----------(3 quarter notes rest)---|

                          A5   
       
 ^  V  ^        ^  V  ^   
 gimme me some skin...
E---------------------------------| 
B---------------------------------| 
G---------------------------------|
D--4---4---4-------7---7---7------|
A--4---4---4-------7---7---7------|
E--2---2---2-------5---5---5------|


     D5                                                                       
     ^  V  ^  V                                         
E-------------------------------------|
B-------------------------------------|
G--7---7---7--------------------------|
D--7---7---7--------------------------|
A--5---5---5--------------------------|
E-------------(3 quarter notes rest)--|

                             A5
     ^  V  ^              ^  V  ^
E-------------------------------------|
B-------------------------------------|
G-7---7---7---------------------------|
D-7---7---7----------7---7---7--------|
A-5---5---5----------7---7---7--------|


Important: The song above is NOT stored on the Chordie server. The original song is hosted at www.guitaretab.com. Chordie works as a search engine and provides on-the-fly formatting. Chordie does not index songs against artists'/composers' will. To remove this song please click here.

This song is displayed as text-only. Transposing and tuning is only available for chordpro-songs.

Login - add to songbook

Rating click stars to rate

Layout
Accuracy

SHARE PAGE  




You need to log in to post comments