Guitar Tabs, Chords and Lyrics


You Know It   Unknown



ARC ANGEL: YOU KNOW IT

By. Rory Kellaway

Play the intro fairly fast and the verse riff slightly slower then the first intro riff.

Intro

E|--------------------------------------|
B|--------------------------------------|
G|--------------------------------------|
D|-10-10--9-9-9-9-----------------------|    X2
A|-8--8---7-7-7-7-9-9-9-10-10-10-10-----|
D|----------------7-7-7-8--8--8--8------|

Verse riff

E|--------------------------------------|
B|--------------------------------------|
G|--------------------------------------|
D|-4-4-4-4-4-4-4-4----------------------|       X3
A|-2-2-2-2-2-2-2-2-4-4-4-5-5-5-5--------|


Important: The song above is NOT stored on the Chordie server. The original song is hosted at www.guitaretab.com. Chordie works as a search engine and provides on-the-fly formatting. Chordie does not index songs against artists'/composers' will. To remove this song please click here.

This song is displayed as text-only. Transposing and tuning is only available for chordpro-songs.

Login - add to songbook

Rating click stars to rate

Layout
Accuracy

SHARE PAGE  




You need to log in to post comments