Chordie logo


My Saviour My God  Aaron Shust

e|---------------------------------------|


b|-3-3-3-3-3-3---3----3-3-3----3-3-3--3--|


G|-4-4-4-4p2-2p0-0----0-0-0----0-0-0--0--|

D|-0-0-0-0-0-0---0--0--------0--------0--|
A|------------------x--------x--------x--|
E|------------------3--------3--------3--|
e|---------------------------------------|
b|-3-3-3-3---3---3----3-3-3----3-3-3--3--|
G|-4-4-4-4p2-2p0-0----0-0-0----0-0-0--0--|
D|-0-0-0-0---0---0--2--------2--------2--|
A|------------------0--------0--------0--|
E|------------------0--------0--------0--|
e|---------------------------------------|
b|---------------------3-3-3---3-3-3--3--|
G|---------------------2-2-2---2-2-2--2--|
D|-0-0-0-0---0----0--0-------0--------0--|
A|-3-3-3-3p2-2p0--0--0-------0--------0--|
E|---------------------------------------|
e|---------------------------------------|
b|-3-3-3-3-3-3---3----3-3-3----3-3-3--3--|
G|-4-4-4-4p2-2p0-0----0-0-0----0-0-0--0--|
D|-0-0-0-0-0-0---0--0--------0--------0--|
A|------------------x--------x--------x--|
E|------------------3--------3--------3--|
e|---------------------------------------|
b|----3-3-3----3-3-3----3-3-3----3-3-3---|
G|----0-0-0----0-0-0----0-0-0----0-0-0---|
D|--0--------0--------0--------0---------|
A|--x--------x--------x--------x---------|
E|--3--------3--------3--------3---------|
e|---------------------------------------|
b|----3-3-3----3-3-3----3-3-3----3-3-3---|
G|----0-0-0----0-0-0----0-0-0----0-0-0---|
D|--2--------2--------2--------2---------|
A|--2--------2--------2--------2---------|
E|--0--------0--------0--------0---------|
e|---------------------------------------|
b|----3-3-3----3-3-3----3-3-3----3-3-3---|
G|----2-2-2----2-2-2----2-2-2----2-2-2---|
D|--0--------0--------0--------0---------|
A|--0--------0--------0--------0---------|
E|---------------------------------------|
e|---------------------------------------|
b|-----3-3-3------3----------------------|
G|-----0-0-0------0----------------------|
D|--0-------------0----------------------|
A|--x-------------x----------------------|
E|--3-------------3----------------------|
e|---------------------------------------|
b|-----3-3-3----3-3-3----3-3-3----3-3-3--|
G|-----0-0-0----0-0-0----0-0-0----0-0-0--|
D|--0---------0--------0--------0--------|
A|--3---------3--------3--------3--------|
E|---------------------------------------|
e|---------------------------------------|
b|-----3-3-3----3-3-3----3-3-3----3-3-3--|
G|-----0-0-0----0-0-0----0-0-0----0-0-0--|
D|--0--------0--------0--------0---------|
A|--x--------x--------x--------x---------|
E|--3--------3--------3--------3---------|
e|---------------------------------------|
b|-----3-3-3----3-3-3----3-3-3----3-3-3--|
G|-----2-2-2----2-2-2----2-2-2----2-2-2--|
D|--0--------0--------0--------0---------|
A|--0--------0--------0--------0---------|
E|---------------------------------------|
e|---------------------------------------|
b|--3-3-3-3-3----------------------------|
G|--0-0-0-0-0----------------------------|
D|--0-0-0-0-0----------------------------|
A|--x-x-x-x-x----------------------------|
E|--3-3-3-3-3----------------------------|
e|-(3)3-3-3-(3)-3-3-3-(3)-3-3-3(3)2-2-x--|
b|--3-3-3-3--0--3-3-3--3--3-3-3-3-3-3-x--|
G|--0-0-0-0--0--0-0-0--0--0-0-0-2-2-2-x--|
D|--2-2-2-2-(2)-2-2-2--0--0-0-0-0-0-0-x--|
A|--2-2-2-2--3--3-3-3-(2)-2-2-2-0-0-0-x--|
E|--0-0-0-0------------3--3-3-3-----x-x--|
e|-(3)3-x-x-(3)-3-x-x-(3)-3-x-x(2)2-x-x--|
b|--3-3-x-x--0--0-x-x--0--0-x-x-3-3-x-x--|
G|--0-0-x-x--0--0-x-x--0--0-x-x-0-0-x-x--|
D|--2-2-x-x-(2)-2-x-x--0--0-x-x-0-0-x-x--|
A|--2-2-x-x--3--3-x-x-(2)-2-x-x-0-0-x-x--|
E|--0-0-x-x------------3--3-x-x-----x-x--|
I am not skilled to under[G]stand
What God has willed, what God has [Em7]planned
I only know at His right [A2]hand
Stands one who is my [G2]Savior
I take Him at His word and deed
Christ died to save me; this I read
And in my heart I find a need
Of Him to be my savior

PRE-CHORUS:
That He would leave His place on [F]high
And come for sinful man to [Em7]die
You count it strange, so once did [D2]I
Before I knew my [G]Savior

CHORUS:
My Savior [Em7]loves, My Savior [C2]lives
My Savior’s [G]always there for [D2]me
My God: He [Em7]was, my God; He [C2]is
My God is [G]always gonna [D2]be
(repeat chorus)

Yes, living, dying, let me bring
My strength, my solace from this spring;
That He who lives to be my King
Once died to be my Savior

That He would leave His place on high
And come for sinful man to die
You count it strange, so once did I
Before I knew my Savior

Important: The song above is NOT stored on the Chordie server. The original song is hosted at www.guitaretab.com. Chordie works as a search engine and provides on-the-fly formatting. Chordie does not index songs against artists/composers will. To remove this song please click here.

Text color:
Chord color:
Chord grids: 
Font size:    
Page size: 

A2 C2 D2 Em7 F G G2
variations - click chord images

Login - add to songbook

Transpose chords

Tuning

Rating click stars to rate

Layout
Accuracy

SHARE PAGE  




You need to log in to post comments