Chordie logo

Arrival   Aberdeen City



-------------------------------------------------------------------------------
			     The Arrival - Aberdeen City
-------------------------------------------------------------------------------
Tabbed by: malectro
Email: malectro@gmail.com
www.aberdeenmusic.com

This is only the acoustic guitar part for the song. I might tab the electric
part out later, but for now this works just fine on its own. The lyrics in
the verse are a little tricky because the last word of each line is on the
first beat of a measure.

Tuning: standard

Verse
             so...  got...            say...
e|-----------------|-----------------|
B|-------2---2-2-2-|-------2---2-2-2-|
G|-------2---2-2-2-|-------2---2-2-2-|
D|-------0---0-0-0-|-------0---0-0-0-|
A|-------0---0-0-0-|-------2---2-2-2-|
E|-2---2-2---2-2-2-|-0---0-0---0-0-0-|

Chorus
Can't    do       much...  used to.
5--5--5-|5--5--5-|5--5--5-|5--5--5-|
-5--5--5|-5--5--5|-7--7--7|-5--5--5|
--6--6--|--6--6--|--7--7--|--6--6--|
--------|--------|--------|--------|
--------|--------|--------|--------|
--------|--------|--------|--------|

can't... I...     do.
7--7--7-|5--5--5-|5--5--5-|5--5--5-|
-9--9--9|-7--7--7|-7--7--7|-5--5--5|
--9--9--|--7--7--|--7--7--|--6--6--|
--------|--------|--------|--------|
--------|--------|--------|--------|
--------|--------|--------|--------|

And I accept it.



| /  slide up
| \  slide down
| h  hammer-on
| p  pull-off
| ~  vibrato
| +  harmonic
| x  Mute note


Important: The song above is NOT stored on the Chordie server. The original song is hosted at www.guitaretab.com. Chordie works as a search engine and provides on-the-fly formatting. Chordie does not index songs against artists/composers will. To remove this song please click here.

This song is displayed as text-only. Transposing and tuning is only available for chordpro-songs.

Login - add to songbook

Rating click stars to rate

Layout
Accuracy

SHARE PAGE  



You need to log in to post comments