Chordie logo


What If I Died Tomorrow   About Last Night



-------------------------------------------------------------------------------
			     about last night - what if i died tomorrow
-------------------------------------------------------------------------------

Tabbed by:Paully2310 (paul.pemberton@ntlworld.com)

yeah its my first song so go easy on it :)
let us knw if its any good or if outs wrong with it

oh n lisson to the song to see what the tempo is 
good luck to ya all XD

Tuning:standard
intro/verse:(but when you play the verse just play the first not of the chord)
e|-----------------------------------------------------|
B|-1-----1------------------1-----1--------------------|
G|-0-------------------0----0--------------------0-----|
D|-2---2-----2---2---2----2-0---0------0---0---0-----0-|
A|-3-3-----3---3---3-----3--2-2-----2---2----2-----2---|
E|-----------------------------------------------------|

e|------------------------------------------------|
B|1-----1---------------1-----1-------------------|
G|2-------------------0-2-------------------0-----|
D|2---2-----2---2---2---3---3-----3---3---3-----3-|
A|0-0-----0---0---0-----3-3-----3---3---3-----3---|
E|------------------------------------------------|
chorus:
e|-0-0-00-1-1-11-3-3-33-0-0-0-0-0-0-0-0-|
B|-1-1-11-1-1-11-3-3-33-1-1-1-1-1-1-1-1-|
G|-2-2-22-2-2-22-0-0-00-0-0-0-0-0-0-0-0-|
D|-2-2-22-3-3-33-0-0-00-2-2-2-2-0-0-0-0-|(x4)
A|-0-0-00-3-3-33-2-2-22-3-3-3-3-2-2-2-2-|
E|--------1-1-11-3-3-33-----------------|
instramental
e|-------------------------------------------|
B|--1--1-1-1-1--1-1-1-1----------------------|
G|--2--2-2-2-2--2-2-2-2--2--2-2-2-2--2-2-2-2-|
D|--2--2-2-2-2--2-2-2-2--3--3-3-3-3--3-3-3-3-|
A|--0--0-0-0-0--0-0-0-0--3--3-3-3-3--3-3-3-3-|
E|-----------------------1--1-1-1-1--1-1-1-1-|
                                                         
e|--------------------------------------------|
B|--------------------------------------------|
G|--5--5-5-5-5--5-5-5-5--4--4-4-4-4--4-4-4-4--|
D|--5--5-5-5-5--5-5-5-5--5--5-5-5-5--5-5-5-5--|(x2)
A|--3--3-3-3-3--3-3-3-3--5--5-5-5-5--5-5-5-5--|
E|-----------------------3--3-3-3-3--3-3-3-3--|
 (Guitar 2)
e|--12-10--------10-12-10-10---|
B|--------13--13---------------|
G|-----------------------------|
D|-----------------------------|
A|-----------------------------|
E|-----------------------------|

e|--12-10----10----10-12-10-------10-----|
B|--------13----13----------13-13----13--|
G|---------------------------------------|(3x)
D|---------------------------------------|
A|---------------------------------------|
E|---------------------------------------|
bridge:
e|----------------------------------------------|
B|--1---1-1-------------------------------------|
G|--2---2-2-2---2-2-4---4-4--5--5-5-5--5--5-5-5-|
D|--2---2-2-3---3-3-5---5-5--5--5-5-5--5--5-5-5-|
A|--0---0-0-3---3-3-5---5-5--3--3-3-3--2--2-2-2-|
E|----------1---1-1-3---3-3---------------------|
 
e|-----------------------------------------|
B|--1-1-1-1-1-1----------------------------|
G|--2-2-2-2-2-2--2-2-2-2-2-2-4-4-4-4-4-4---|
D|--2-2-2-2-2-2--3-3-3-3-3-3-5-5-5-5-5-5---|
A|--0-0-0-0-0-0--3-3-3-3-3-3-5-5-5-5-5-5---|
E|---------------1-1-1-1-1-1-3-3-3-3-3-3---|

e|---------------------------|
B|---------------------------|
G|----5--5-5-5--5--5-5-5--5--|
D|----5--5-5-5--5--5-5-5--5--|
A|----3--3-3-3--2--2-2-2--3--|
E|---------------------------|

structure:
intro
verse
chorus
verse
chorus
instrumental
bridge
verse(x1)
chorus
verse


lyrics:
Every day I try to see 
the closeness that your promised me,
fades away,
it fades away.

Every night I try to dream 
of what you wanted me to be,
in your life,
in your life.

Every dawn the light that wakes you up 
will remind you of my touch.
that you miss so much.

What if i died tomorrow?
would you miss me here?
What if i cried tomorrow?
Would you shed your tears?

Every time you think about
the things you said
remind yourself im gone. ( im gone)

I hope you take this as a lesson learned.
Tomorrow isn't promised (nothing's promised.)

Every hour, every day gone by,
you'll cry for me,
you'll cry for me.

What if I died tomorrow?
would you miss me here?
What if I cried tomorrow?
Would you shead your tears?


A story's just been told that has happened yet.
Just a tragic foreshadowing
of what could happen to you.

Think before you speak,
it could be the last time ( the last time)
you ever speak to him.


What if I died tomorrow?
would you miss me here?
What if I cried tomorrow?
Would you shead your tears?


A story's just been told that has happened yet.
Just a tragic foreshadowing
of what could happen...



Important: The song above is NOT stored on the Chordie server. The original song is hosted at www.guitaretab.com. Chordie works as a search engine and provides on-the-fly formatting. Chordie does not index songs against artists/composers will. To remove this song please click here.

This song is displayed as text-only. Transposing and tuning is only available for chordpro-songs.

Login - add to songbook

Rating click stars to rate

Layout
Accuracy

SHARE PAGE  




You need to log in to post comments