Guitar Tabs, Chords and Lyrics


Dreaming Of Love   Absurd



Absurd - Dreaming of love

E|---------------------|
B|---------------------|
G|---------------------|
D|-7---5---3---2-------|
A|-5---3---1---0-------|
E|---------------------|

E|--------   ---------------|
B|--------   ---------------|
G|--------   ---------------|
D|-7--5-3-   -7-----7-------|
A|-5--3-1-   -5--4--5--4--2-|
E|--------...----2-----2--0-|

E|------------|
B|------------|
G|------------|
D|-7--3--7--5-|
A|-5--1--5--3-|
E|------------|...

E|---------------------|
B|---------------------|
G|---------------------|
D|-7---5---3---2-------|
A|-5---3---1---0-------|
E|---------------------|

SOLO
E|---------------------------------------------------|
B|---------------------------------6-8--8-6-8--6--8b-|
G|-------------------5-7--7-5-7--7-------------------|
D|-----5-7--7-5-7--7---------------------------------|
A|-5-8-----------------------------------------------|
E|---------------------------------------------------|

E|---------------------------------------------------|
B|-6/8-------8-6-----8-6-----6-----6--8--6---6-8-6---|
G|-----5-7-5-----7-5-----7-5---5-7---------7-------7-|
D|---------------------------------------------------|
A|---------------------------------------------------|
E|---------------------------------------------------|

E|---------------------------------------------------|
B|-8-6-----8-6-----8-6-----8-6-----8-6---------------|
G|-----7-5-----7-5-----7-5-----7-5-----7-5-------5-7-|
D|-----------------------------------------7-5-7-----|
A|---------------------------------------------------|
E|---------------------------------------------------|

E|---------------------------------|
B|-6--8--6--8--6-------------------|
G|----------------7--------5--7----|
D|---------------------------------|
A|---------------------------------|
E|---------------------------------|

Dreaming of your love..!
E|--------------|
B|--------------|
G|--------------|
D|-7--3--5--7---|
A|-5--1--3--5---|
E|--------------|...

E|--3-2-3-2-3-2-3-2-3-2-3-|
B|------------------------|  etc...



Important: The song above is NOT stored on the Chordie server. The original song is hosted at www.guitaretab.com. Chordie works as a search engine and provides on-the-fly formatting. Chordie does not index songs against artists/composers will. To remove this song please click here.

This song is displayed as text-only. Transposing and tuning is only available for chordpro-songs.

Login - add to songbook

Rating click stars to rate

Layout
Accuracy

SHARE PAGE  




You need to log in to post comments