"yes"; ?> by Unknown - guitar chords, guitar tabs and lyrics - chordie
 -----------------|

-----------------|
----4-x-x-4-x----|
----4-x-x-4-x----|
--2-2-x-x-2-x----|
-----------------|
-----------------|
-----------------|
------2-----4----|
--2h4-2-2p0-4----|
------------2----|
-----------------|
--7-x-x-7--------|
--7-x-x-7--------|
-----------------|
-----------------|
-----------------|
-----------------|
------3---2----------------|
------3---3----------------|
--4---0---2----4-x-x-4-x---|
--4---0---0--4-4-x-x-4-x---|
--2----------2-2-x-x-2-x---|
------3--------------------|
------3---2-------|
------3---3-------|
--4---0---2--4----|
--4---0---0--4----|
--2----------2----|
------3-----------|
------7~~~~~\-----|
------------------|
--7h8-------------|
------------------|x4
------------------|
------------------|
--------------------------------------|
--15(17)-15(16)-12-14----12-----12\---|
----------------------13-----13-------|
--------------------------------------|
--------------------------------------|
--------------------------------------|
-------------------------19-17-----------------|
--17(19)-15-17(19)-17(19)-----19-17------------|
-----------------------------------19P18-16\---|
-----------------------------------------------|
-----------------------------------------------|
-----------------------------------------------|
------------------------17----------------19--------------------|
--15-15--15-15---17(19)---17(19)-15-17(19)--19-22(24)-----------|
-------16-----16--------------------------------------/11\4-4---|
----------------------------------------------------------------|
----------------------------------------------------------------|
----------------------------------------------------------------|
---------------------|
---------------------|
--4-4--4-2-4-2-------|
--4-4--4-2-4-2--2-2--|x2
--2-2--2-0-2-0--2-2--|
----------------0-0--|
---------------------|
---------------------|
--4-4-4--4-----------|
--4-4-4--4-----------|
--2-0-2--2-----------|
---------------------|
----------------------------------------------------------------|
--------------------------------------------4\--7---------------|
----7-----7(9)----------7(9)----------------4\--7------7(9)-----|
------9-9-----9-9-9--\-------9-9--6--4\-----4\-----9-9------9-9-|
--/9-------------------------------6----6-6---------------------|
----------------------------------------------------------------|
----------------------------------------------------------------|
--10(12)---------------------------------------12-15---14--12---|
--------10-7-9(11)-9(11)-7----------------11-13----------14-----|
-----------------------------------9-11/13----------------------|
-------------------------------9/11-----------------------------|
----------------------------------------------------------------|
----------------------------------------------------------------|
---------15------15-15-15p12---14(15)-14(15)-14(16)-14(15)-12-\-|
--14(16)---14(16)-----------------------------------------------|
----------------------------------------------------------------|
----------------------------------------------------------------|
----------------------------------------------------------------|
-----------------------10(12)-11-7-7-7\--10-10-10--10-10-10--10-|
---------10----------------------------12--------12--------12---|
--9(11)----9(11)-9-7\-------------------------------------------|
----------------------------------------------------------------|
----------------------------------------------------------------|
----------------------------------------------------------------|
--12-12(14)-12(14)~~~~~-------|
------------------------------|
------------------------------|
------------------------------|
------------------------------|
------------------------------|
--------------------------------|
---------3-3-3------------------|
--4-2----2-2-2--4---------------|
--4-2-2--0-0-0--4---------------|
--2-0-2---------2---------------|
------0-------------------------|
----------------------|
----------------------|
----------------------|
--4-4-6-7---2-2-4-5---|x3
--2-2-2-2---0-0-0-0---|
----------------------|
--------------------|
--------------------|
--------------------|
------------2-3-4---|
--2-2-4-5---0-1-2---|
--0-0-0-0-----------|
--------------------|
--------------------|
--------------------|
--4-4-4-4-4-4-4/----|
--2-2-2-2-2-2-2/----|
--------------------|
----------- ------------|
----------- --------3---|
----------- --------4---|
-----------x4--2-2-4-5---|x4 x2
--2-2-4-5-- --0-0-0-0---|
--0-0-0-0-- ------------|
--------------------|
--------------------|
--------------------|
--------------------|x4
--2-2-4-4-5-5-4-4---|
--0-0-0-0-0-0-0-0---|
------------|
------------|
------------|
--2-2-4-4---|x4
--0-0-0-0---|
------------|
------ ------|
------ ------|
--4--- --2---|
--4---repeat --2---|repeat
--2--- --0---|
------ ------|
e|--------------------------------------------------------------------------|
b|----------------------------------------------------------------------12--|
g|--------9--11-(13)----------11-13-11-9---------9--11-13---11-12----13-----|
D|-9--11---------------9--11---------------9--11----------------------------|
A|--------------------------------------------------------------------------|
E|--------------------------------------------------------------------------|
 B
      r   b   r            b               bend           b
e|---------------------------------------------------------------------------|
b|-------------------------------12---15-------------------------------------|
g|-13--12--13--11-9-\----14-16---------14-16-14-12-14-14-16-14-12----14---12-|
D|------------------------------------------------------------------14----14-|
A|---------------------------------------------------------------------------|
E|---------------------------------------------------------------------------|

b b b b b b tr b ~~~~~~~
e|--------------------------------------------------------------------------|
b|-------------------------------3-0-------------------------10-12--8-------|
g|-2-4-----2-4-2-4-2-4-2-4---2-0-----2-0-----0------------------------9-----|
D|---------------------------------------2-0---0---2-----0------------------|
A|--------------------------------------------------------------------------|
E|--------------------------------------------------------------------------|

b r b r b b
e|-------12---------------------------------------------15-17-15-17-15-12-14-|
b|-12-15----12--15--17--17---17-15-12-14-15------14--12----------------------|
g|---------------------------------------------------------------------------|
D|---------------------------------------------------------------------------|
A|---------------------------------------------------------------------------|
E|---------------------------------------------------------------------------|

b~~~~ b
e|15-17-15-14-12----12---------------------------------------------------12-|
b|---------------15----15-12----12----------12-------------------------12---|
g|---------------------------14----14-14-16----15-12-14-12----12-14-16------|
D|---------------------------------------------------------14---------------|
A|--------------------------------------------------------------------------|
E|--------------------------------------------------------------------------|

~~~~~~ ~~~~~ b b
e|----------------------------------------------------|
b|15-12-------------------------------------15----15--|
g|------15-14-12----14----12\------9\----14-16-14-16--|
D|---------------14----14----\-------\----------------|
A|----------------------------------------------------|
E|----------------------------------------------------|


Live Wire

Rythm figure 1 end of Rythm figure 1
||----------------|----------------|----------------|----------------||-|
||-*-T------------|----------------|----------------|--------------*-||-|
||-*-A------------|----------------|----------------|--------------*-||-|
||---B-2----------|----------------|--4-------------|----------------||-|
||-----0----------|--2-------------|--2-------------|----------------||-|
||----------------|--0-------------|----------------|----------------||-|

Guitar 2 (Angus)joins in
Rythm Figure 2 end of rythm figure 2
||----------------|----------------|----------------|----------------||-|
||-*-T------------|----------------|----------------|--------------*-||-|
||-*-A------------|----------------|----------------|--------------*-||-|
||---B-2---4------|----------------|--2---4---------|----------------||-|
||-----0---2------|----------------|--0---2---------|----------------||-|
||----------------|----------------|----------------|----------------||-|


Rythm Figure 3 end of rythm figure 3
||----------------|----------------|----------------|----------------||-|
||-*-T------------|----------------|----------------|--------------*-||-|
||-*-A-2-----4--4-|----------------|-----2-----4--4-|--------------*-||-|
||---B-2--2--4--4-|----------------|-----2--2--4--4-|----------------||-|
||-----0--2--0--2-|----------------|-----0--2--0--2-|----------------||-|
||--------0-------|----------------|--------0-------|----------------||-|


Rythm Figure 4 end of rythm figure 4
||----------------|----------------|----------------|----------------||-|
||-*-T------------|----------------|----------------|--------------*-||-|
||-*-A-2-----4--4-|-----------4--4-|-----2-----4--4-|---------4--4-*-||-|
||---B-2--2--4--4-|-----------4--4-|-----2--2--4--4-|---------4--4---||-|
||-----0--2--0--2-|-----------0--2-|-----0--2--0--2-|---------2--0---||-|
||--------0-------|----------------|--------0-------|----------------||-|


T.N.T

--0---|
--0---|
--1---|
--2---|
--2---|
--0---|

Riff A(Malcolm)(2nd Verse Angus joins in)
 --------------------|
 ------3-2-----2-----|
 ------0-2-----2-----|
 --2---0-2-----2-----|Play through Verse
 --2-----0-----0-----|
 --0---3-----3---3---|


Riff B(both)
 ------------|
 --2---------|
 --2---------|
 --2-----2---|
 --0-----2---|
 -----3--0---|


Guitar solo w/ Riff A
 ------------3-2-0---------------------------12------------------------|
 -----------------3-2-0----------------15(17)--15-12-----12------------|
 --2(3)-2(3)-----------2-0---0----------------------12h14--14-14p12----|
 -------------------------4/5---------------------------------------14-|
 ----------------------------------------------------------------------|
 ------------------------------/15\-0----------------------------------|
 ------------------12------------12----------12-15-12--12--------------|
 ---------------12-12-15p12--------12--15(17)------------15--15-12--12-|
 --14--12-14(16)-----------14(16)------------------------------14------|
 ----14----------------------------------------------------------------|
 ----------------------------------------------------------------------|
 ----------------------------------------------------------------------|
 ---------------------------------------17(19)~~~~~~-----\2-----------|
 ---------------------------------------------------------------------|
 --14-12--14--12(13)--------------------------------------------------|
 -------14--14--------14-12-14----14\---------------------------------|
 ---------------------------------------------------------------------|
 ---------------------------------------------------------------------|


Outro(Malcolm)
 --0-1-2-3-4-5-6-7-8--9--10-11-12-13-14-15----------------------------|
 --0-1-2-3-4-5-6-7-8--9--10-11-12-13-14-15----------------------------|
 --1-2-3-4-5-6-7-8-9--10-11-12-13-14-15-16----------------------------|
 --2-3-4-5-6-7-8-9-10-11-12-13-14-15-16-17-18-19-20-21-21-21-21-21\---|
 --2-3-4-5-6-7-8-9-10-11-12-13-14-15-16-17-18-19-20-21-21-21-21-21\---|
 --0-1-2-3-4-5-6-7-8--9--10-11-12-13-14-15-16-17-18-19-19-19-19-19\---|

T.M.
 -----------------------------0-----0---|
 -----------------------------0-----0---|
 -----------------------------1-----1---|
 --x-x-x-x-x-x-x-x-x-x-x-x\---2-----2---|
 --x-x-x-x-x-x-x-x-x-x-x-x\---2-----2---|
 --x-x-x-x-x-x-x-x-x-x-x-x\---0-----0---|


Outro(Angus) T.M................
U.B....... Bend...................................H.B................
 ----------------------------------------------------/-----------------|
 --5-6-7--8------------------------------------------/-----------------|
 --7-8-9-10---11-13-14-15-16-17-18-19-20-21-22-22-22-22----------------|
 ----------------------------------------------------/-----------------|
 ----------------------------------------------------/-----------------|
 ----------------------------------------------------/-----------------|


Let open strings ring T.M.
 --0------------------------0-----0---|
 --0------------------------0-----0---|
 --0---2p0-2p0-3p0--0-------1-----1---|
 --0----------------0-------2-----2---|
 --0------------------------2-----2---|
 --0------------------------0-----0---|


Can I sit Next To You Girl

Intro Chords:
+-----------------------------------------------------------------------|
+-----------------------------------------------------------------------|
+-------6-8-------------------------------------------------------------|
+-6-8-9-6-8-------------------------------------------------------------|
+-6-8-9-4-6-------------------------------------------------------------|
+-4-6-7-----------------------------------------------------------------|


Verse:
+-----------------------------------------------------------------------|
+-----------------------------------------------------------------------|
+-----------------------------------------------------------------------|
+-4H6-8-6-8-4H6-8-6-8---------------------------------------------------|
+-4..-4-4-4-4..-4-4-4------------1-2-2-2-2-1-------------1-2-2-2-2-1----|
+----------------------2-2-2-2-4-------------4-2-2-2-2-4-------------4--|
+-----------------------------------------------------------------------|
+-----------------------------------------------------------------------|
+-----------------------------------------------------------------------|
+-----------------------------------------------------------------------|
+-4H6-8-6-8-4H6-8-6-8------------------------1-2-2-2-2------------------|
+-4..-4-4-4-4..-4-4-4------------1-2-2-2-2-4-----------2-1-0-0-0-0-2-4--|
+----------------------2-2-2-2-4----------------------------------------|
+-----------------------------------------------------------------------|
+-----------------------------------------------------------------------|
+-----------------------------------------------------------------------|
+-7-7-9-7-7-7-9-7-7-7-9-7-7..8..9-9-11-9-9-9-11-9-9-9-11-9-9..8..7------|
+-5-5-5-5-5-5-5-5-5-5-5-5-5..6..7-7-7--7-7-7-7--7-7-7-7--7-7..6..5------|
+-----------------------------------------------------------------------|
Repeat the 7-7-9-7---| part a few more times, then:
+--------------------|
+--------------------|
+--------------------|
+-4-2-------------6--|
+-----4-2-0-------6--|
+-----------2-0-2-4--|


And you're back where you started.

Near the end it does this for a while:
+-------------------------------------------------------------|
+-------------------------------------------------------------|
+-8-------6--5------------------------------------------------|
+-8-------6--5------------------------------------------------|
+-6-------4--3------------------------------------------------|
+-------------------------------------------------------------|


Little Lover

e|------------------------------------|-----3-3----3-5-3-5-3--3------\------|
b|------------------------------------|-----3-3----3-5-3-5-3--3------\------|
g|--------0--0-----0-----0--0----0----|-------------------------------------|
D|--------0--0-----0-----0--0----0----|-------------------------------------|
A|------------------------------------|-------------------------------------|
E|-3---3-------3------3-------------3-|-0-0------0--------------------------|

G5 Em7 endpattern
e|------------------------------------|-----3-3----3-5-3-5-3--3-3-----------|
b|------------------------------------|-----3-3----3-5-3-5-3--3-3----3------|
g|--------0--0----0-0----0--0----0----|-------------------------------------|
D|--------0--0----0-0----0--0----0----|-------------------------------------|
A|------------------------------------|--------------------------------0----|
E|-3---3-------3-----3--3------3----3-|-0-0------0--------------------------|

Bridge (Oohh,Baby..)
 A5A6A5A6C5
e|--------------------------------------------------------------------------|
b|--------------------------------------------------------------------------|
g|--2---2-----2-2---2-----2-2---2-----2-2---2----2--5---5-5---5-5---5-5---5-|
D|--2---2-4---2-2---2-4---2-2---2-4---2-2---2-4--2--5---5-5---5-5---5-5---5-|
A|--0---0-0---0-0---0-0---0-0---0-0---0-0---0-0--0--3---3-3---3-3---3-3---3-|
E|--------------------------------------------------------------------------|
e|------------------|
b|------------------|
g|---5-5---5-5---5--|
D|---5-5---5-5---5--|
A|---3-3---3-3---3--|
E|------------------|

Chorus (little lover...)
No Chord Em7
e|---------------------3---|    |--------------------------------------|
b|---------------------3---|    |--------------------------------------|
g|---------------------2---|    |--------------------------------------|
D|2---0--------------------|3x  |---2--0-----2--0-----2--0----2--0-----|
A|-------2-----------------|    |--------------------------------------|
E|----------3--0----0------|    |-0-------3--------3-------3-------3---|

Guitar Solo
 G5G6G5G6G5G6G5G#5A5A6A5A6A5A6
    tr~~~~~~~~~~~~~~~~~~~ tr~~~~         tr~~~~~~~~~~~b                    b r
e|-----------------|-----------------|-----------------|---5-----------------|
b|--3--(6)---------|------4--(7)-----|---5--(8)------8-|10---8-7-5-5---------|
g|-----------------|-----------------|-----------------|----------7--7-5-7-9-|
D|-----------------|-----------------|-----------------|---------------------|
A|-----------------|-----------------|-----------------|---------------------|
E|-----------------|-----------------|-----------------|---------------------|

 A5A#5B5B6B5B6B5
      b~~~~~~~~~~~~~~       b  r ~~~~~           b ~~~~~~                  
e|-----------------------------------------7--------------7-10-7------------|
b|-------------------------9-10--9----7-10---7-10-12-------------10-7-7-----|
g|-5-7-9--------------\----9-11--9--------------------------------------9-7-|
D|--------------------------------------------------------------------------|
A|--------------------------------------------------------------------------|
E|--------------------------------------------------------------------------|

 B6B5C5C6C5
                           ~~~~~~                b  ~~~~~~  b  r       b  r
e|----------------------------------------8----------------------------------|
b|-------------------------------------/8---8--11-13------11-13-11-8-10-11-1-|
g|7----9--7------------------------------------------------------------------|
D|--9--------9--7--7--7--7-9-----\-------------------------------------------|
A|---------------------------------------------------------------------------|
E|---------------------------------------------------------------------------|


C6 C5 D5 D6 D5 D#5 D#6 D#5 ...lover
~~~~~~~~~~~~ b b b b r b r b
e|--------------------------------------------------------------------------|
b|----------------13----13-------13-\-----15-16--15-15-16---15-13--15-17----|
g|9------------12-14-12-14----12-14-\---------------------------------------|
D|--------------------------------------------------------------------------|
A|--------------------------------------------------------------------------|
E|--------------------------------------------------------------------------|

Outro (Bluesy Feeling both Guitars)
/ G5 b r b b \
e|----------------------------------|----------17-19-17-17-19-17-15-15-17-19-|
b|----------------------------------|----------------------------------------|
g|----------------------------------|----------------------------------------|
D|----------------------------------|----------------------------------------|
A|----------------------------------|----------------------------------------|
E|----------------------------------|----------------------------------------|

| b r |
e|----------------------------------|---------------------------------------|
b|--------------3--3----------------|-----3--3---2------3--3--------3--3----|
g|--------0-----0--0----------------|-----0--2-2-3-2----0--0------2----0----|
D|--------0--2------------------0---|-2--------------2----------------------|
A|----------------------------------|---------------------------------------|
E|-3---3----------------------------|---------------------------------------|

\........................................................................../

/ Em7 b r ~~~~~~~~ b ~~~~~~~~~ \
e|--------------14-15-14-12---------|----------19---------------------------|
b|----------------------------------|------------19-20--17------------------|
g|----------------------------------|---------------------------------------|
D|----------------------------------|---------------------------------------|
A|----------------------------------|---------------------------------------|
E|----------------------------------|---------------------------------------|

| ~~~~~~ ~~~~~~~~ ~~~~~~~~~~~ |
e|------------------------5----5----|-------------------0--------------------|
b|------------------------3----5----|----------------------------------------|
g|----------------------------------|----------------------------------------|
D|----------------------------------|----0-----2------------------2----------|
A|----------------------------------|----------------------------------------|
E|-0----0--0------------------------|--0-------------------3---0-------------|

\........................................................................../

/ G5 ~~~~~~~~~~ ~~~ \
e|------------3--5--3---------------|------3---------------------------------|
b|------3--5------------------------|-------------5------3-------------------|
g|--------------------------------3-|-4--------------------------------------|
D|----------------------------------|----------------------------------------|
A|----------------------------------|----------------------------------------|
E|----------------------------------|----------------------------------------|

| |
e|----------------------------------|---------------------------------------|
b|------------------3------3--3-----|-3-----------5--3---3----------3-------|
g|------------------0------2--0-----|-0-----2-4------2-0-2-0----0-2-----0---|
D|----------0--2--------------------|------------------------2--------------|
A|----------------------------------|---------------------------------------|
E|--3----3--------------------------|---------------------------------------|

\........................................................................../

/ Em7 ~~~~~~~~~~~ b r \
e|------------------10-9-7----------|----9-10-9-7-7--------------------------|
b|----------------------------------|---------------------------------7------|
g|----------------------------------|----------------------------------------|
D|----------------------------------|----------------------------------------|
A|----------------------------------|----------------------------------------|
E|----------------------------------|----------------------------------------|

| ~~~~~~~~~~ |
e|----------------------------------|----------------------------------------|
b|----------------------------------|----------------------------------------|
g|----------------------------------|------------------------0---------------|
D|---------0--0-----0--2-----2------|----2---------2-------------------------|
A|----------------------------------|----------------------------------------|
E|--0---0--------0--------3------0--|3------0-3-------------------0---0------|

\........................................................................../

/ G5 b Em7 b r \
e|----------------------------------------------------|----------------------|
b|-----8--8-10-12-8-8--8------------------------------|---7-8-7--5--5--------|
g|9-----------------------9-7----/-9------------------|-----------------6----|
D|----------------------------------------------------|----------------------|
A|----------------------------------------------------|----------------------|
E|----------------------------------------------------|----------------------|

|
e|----------------------------------------------------|---------------------|
b|------------------3------------3/5\3--3-------------|---------------------|
g|-----0--0------0--0----------------------------0----|---------------------|
D|-----0--0------------------------0------------------|----------------0-2--|
A|----------------------------------------------------|---------------------|
E|3--3---------3-----3---3---3---3/5\3-----3--3-----2-|0---0--0--0--0-------|

\........................................................................../

She's Got Balls

Intro & Verse
E||----------------------|------------------------|
B||----------------------|-5----------------------|
G||*---------------------|-5----------------------|
D||*-5h7--7----7----7----|(5)----7----7----7--5---|
A||--0----0----0----0----|-------0----0----0--0---|
E||----------------------|------------------------|


Pre-Chorus:
|-------------------|-------------------|--------------------|
|-------------------|-------------------|--------------------|
|-------------------|-------------------|----------5----5----|
|--3----------------|--5----------------|----------5----5----|
|--3----------------|--5----------------|----------3----3----|
|--1----------------|--3----------------|--------------------|


Chorus:
|-----------------------|-----------------------|
|-----------------------|-----------(5)--(5)----|
|*-(2)------------------|------------5----5----*|
|*--2----2----2----2----|--2----2----5----5----*|
|---0----0----0----0----|--0----0----3----3-----|
|-----------------------|-----------------------|
|-----------------------|-----------------------||
|-----------------------|-----------(5)-(5)-(5)-||
|--(2)------------------|------------5---5---5--||
|---2----2----2----2----|--2----2----5---5---5--||
|---0----0----0----0----|--0----0----3---3---3--||
|-----------------------|-----------------------||


3rd Verse (Malcolm):
|----------------------|---------------------||
|----------------------|-(5)------7----------||
|*---------------------|--5-------7---------*||
|*-5h7-----------------|--5------(0)--------*||
|--0-------------------|---------------------||
|----------------------|---------------------||


High Voltage

e|-----|-------|-----------------|-------|-----------------|-------|-----------|
b|-9-9-|9------|-------------9-9-|9------|-------------9-9-|9------|-----------|
g|-9-9-|9----7-|-----2---2---9-9-|9----7-|-----2---2---9-9-|9----7-|-----2---2-|
D|-9-9-|9----7-|-----2---2---9-9-|9----7-|-----2---2---9-9-|9----7-|-----2---2-|
A|-7-7-|7----5-|--4--0---0---7-7-|7----5-|--4--0---0---7-7-|7----5-|--4--0---0-|
E|-0-0-|0------|-------------0-0-|0------|-------------0-0-|0------|-----------|

E D5 A5 end
e|-----|-------|-----------------|
b|-9-9-|9------|-----------------|
g|-9-9-|9----7-|-----2---2---2-2-|
D|-9-9-|9----7-|-----2---2---2-2-|
A|-7-7-|7----5-|--4--0---0---0-0-|
E|-0-0-|0------|-----------------|


Pattern 2a Gtr. 2 2b Gtr. 1
 AA
e|-------------------------------------------------------| e|-------5----5-|
b|----------------------------------------------------9--| b|--------------|
g|2---2--2--2-2--2-2---2---2-2-----2----2-2-----2-----9--| g|--5--6--------|
D|2---4--2--2-2--2-2---2---4-2-----2----2-2-----2-----9--| D|--------------|
A|0-0-0--0--0-0--0-0-x-0-x-0-0-0-0-0--0-0-0-0-0-0-0-0-7--| A|--------------|
E|----------------------------------------------------0--| E|--------------|

Pattern 3 Verse
 ED5E
e|------------------------------------------------------------------|
b|-9------9-----9---9-----9-----------------------------------------|
g|-9------9-----9---9-----9------7---7-------------7-------7--------|
D|-9------9-----9---9-----9------7---7-------------7-------7--------|
A|-7------7-----7---7-----7------5---5-5-5-5-5-5-5-5-5-5-5-5-4------|
E|-0-0-0--0-0-0-0---0-0-0-0-0-0--------------------------------5-0--|

Chorus
 A5C5D5A5
e|----------------------------------------|
b|----------------------------------------|
g|-2---5---7---2----2-2-2-2-2-2---2---2-2-|
D|-2---5---7---2----2-2-2-2-2-2---2---2-2-|
A|-0---3---5---0--0-0-0-0-0-0-0-x-0-x-0-0-|
E|----------------------------------------|				



A A#5 A5 A6 B B5 B6 C5 C6 D5 E G#5 G5 G6
variations - click chord images
Transpose chords:
Tuning:
Cool service:
View: Size:
A  A  A
Rating:
Layout:
  • Currently 3/5 Stars.
  • 1
  • 2
  • 3
  • 4
  • 5
 
Accuracy:
  • Currently 2.7/5 Stars.
  • 1
  • 2
  • 3
  • 4
  • 5
 
click stars to rate
Chordie recommends:
Check out JamPlay.com for online video guitar lessons
Songbook:
Login to add this song to your songbook
Support the artist
Preview/buy this song
MSN Music
Why this non-profit ad?

 
login to add comments/video/corrections