Whole Lotta Rosie

Ac/Dc

E[------------------------]   Repeat with one bar beaks in between and then the same 

B[------------------------]   with the vocals.

G[-----5-----7-----5------]   

D[--7--5--7--7--7--5--7---]

A[--7-----7-----7-----7---]

E[------------------------]


Riff 2
THEN... E[-----------------------]-----------------------]-----------------------]
        B[-----------------------]-----------------------]-----------------------]
        G[-----5-----7-----5-----]--2--------2-----2--2--]--------------------2--]
        D[--7--5--7--7--7--5--7--]--2-----2--2-----2--2--]-----------0--------2--]
        A[--7-----7-----7-----7--]-----0--0--0--0--0--0--]--0--3--0-----0--3--0--]
        E[-----------------------]-----------------------]-----------------------]

Above is the rhythm section repeated about 3 times on its own and then with the vocals which I can't be bothered to type out quite frankly!
You're a whole lot-a wo-man
THEN TO THE BRIDGE  [----------------------]--1------1------1--] One bar rest
AND CHORUS          [----------------------]--1------1------1--]
                    [--2--2----2-----------]--X------X------X--]
                    [--2--2----2-----------]--3------3------3--]
                    [--0--0----0-----------]--3------3------3--]
                    [---------------0---X--]--1------1------1--]

Whole lotta wo-man Whole lotta Ros-ie
                    [----------------------]  One  [----------------3--]
                    [--3------3------3-----]  Bar  [----------------3--]
                    [--2------2------2-----]  Rest [--2----------X--0--]
                    [--0------0------0-----]       [--2-------------0--]
                    [----------------------]       [--0----------------]
                    [----------------------]       [-------------------]

Reapeat 'Rosie'section &
on last repitition add [--3-------------3--]---------3--------]
                       [--3------3------3--]--3------3--------]
                       [--0------2------0--]--2------0--------]
                       [--0------0------0--]--0------0--------]
                       [-------------------]------------------]
                       [--3------2------3--]--2------3-----4--]

Then repeat rhythm section & continue through song.































variations - click chord images
Transpose chords:
Tuning:
Cool service:
View: Size:
A  A  A
Rating:
Layout:
  • Currently 0/5 Stars.
  • 1
  • 2
  • 3
  • 4
  • 5
 
Accuracy:
  • Currently 2.2/5 Stars.
  • 1
  • 2
  • 3
  • 4
  • 5
 
click stars to rate
Chordie recommends:
Learn to play guitar with video-based, online guitar lessons at JamPlay.com
Songbook:
Login to add this song to your songbook
Support the artist
Preview/buy this song
MSN Music
Why this non-profit ad?

 
login to add comments/video/corrections