Fight For Your Right

Acab

e:---3--------2---------3--------5--5-7-5---5---------|

B:---3------2/3---------5--------7--------8-----------|
G:---4--------4---------5--------7--------------------|(2x repeat)
D:---5--------4---------5--------7--------------------|
A:---5--------2---------3--------5--------------------|
E:---3--------2---------3--------5--------------------|

 GBm
I'm really sad 'bout it

 CD
To see the stupid in your head

 GBm
You acting like a pussy

 CD
Killing all the guts you got

 GBm
But you don't even fight

 CD
When your enemy not satisfied

 GBm
You think about disaster

 CD
but all you do is cryin' all night

(chorus)

 EmDCBmC
Hey you where your guts      

 DEmDCBmCD
See the people change if you keep on cryin' all night          

 EmDCBmC
Hey you where your guts      

 DEmDCCBmAG
Can't you fight for your right              

(solo)

e:------------------------------------------------------------------2---2-3-|
B:--------------------------------------------------------3--3-5-3-5--5-----|
G:---------------------------------------2--2-4-2-4-5-4-5--5----------------|
D:---------------------2---2-4-2-4-5-4-5--5---------------------------------|
A:----2---2-3-2-3-5-3-5--5--------------------------------------------------|
E:3-5---5-------------------------------------------------------------------|
e:---2-3-5-3-5-7-5-7-8-7-8-10-8-10-12-10-12-14-12-14-15-14-15-14-15-15~~----|
B:--------------------------------------------------------------------------|
G:--------------------------------------------------------------------------|
D:--------------------------------------------------------------------------|
A:--------------------------------------------------------------------------|
E:--------------------------------------------------------------------------|
e:---15-15-14-15-14-12-12-14~-14-12-12-14-12-10-12~-12-10-12-10-------------|
B:--------------------------------------------------------------------------|
G:--------------------------------------------------------------------------|
D:--------------------------------------------------------------------------|
A:--------------------------------------------------------------------------|
E:--------------------------------------------------------------------------|
e:---12----12----12----12---------------------------------------------------|
B:------13----12----10------------------------------------------------------|
G:------------------------12~~-12-12-11-12/14-12-11-12-11h12----11----------|
D:-----------------------------------------------------------12----12/14----|
A:--------------------------------------------------------------------------|
E:--------------------------------------------------------------------------|
e:--------------------------------------------------------------------------|
B:--------------------------------------------------------------------------|
G:---12---------------------------------------------------------------------|
D:------14-12-12-14-12-10-12-9-12-7-12-5-12-5~~-----------------------------|
A:--------------------------------------------------------------------------|
E:--------------------------------------------------------------------------|


repeat verse & chorus till da end

This is my first tab so i hope you guys can go easy with it..
this pretty good song and easy to play though.. (best to play this song in full chords)
have fun n enjoy it!!!
unite n fight!!!!

if you guys have any comment, plzz send yours to my email.. weird2417@yahoo.com


A Bm C D Em G
variations - click chord images
Transpose chords:
Tuning:
Cool service:
View: Size:
A  A  A
Rating:
Layout:
  • Currently 0/5 Stars.
  • 1
  • 2
  • 3
  • 4
  • 5
 
Accuracy:
  • Currently 0/5 Stars.
  • 1
  • 2
  • 3
  • 4
  • 5
 
click stars to rate
Chordie recommends:
Learn to play this song & others via video guitar lessons at JamPlay.com
Songbook:
Login to add this song to your songbook
Support the artist
Preview/buy this song
MSN Music
Why this non-profit ad?

 
login to add comments/video/corrections