Helen Burns

Ace Troubleshooter

e--------------------------------------|

B------9--------------------9~--9-9----|
G----9---9-----11-9--9-9---------------|
D----------9-9-------------------------|
A--7-----------------------------------|
E--------------------------------------|
e--------------------------------------|
B------9--------------------9~--12-9---|
G----9---9-----11-9--9-9---------------|
D----------9-9-------------------------|
A--7-----------------------------------|
E--------------------------------------|

 EAEA
  then intro  
then those chords again

Chorus:
 EAEA
then intro
then verse
then chorus

little interlude thing:
Guitar 1
e----------------------------|
B----------------------------|
G------4-----4------4-----4--|
D--6-----6------6-----6------|  over and over again throughout
A----7-----7------7-----7----|
E----------------------------|


Guitar 2
e---------------------------------------------|
B---------------------------------------------|
G---------------------------------------------|
D--666666-7777--9--9-777777--9--9--9--9-11-11-|  x2 but at the end of
A--777777-9999-11-11-999999-11-11-11-11-12-12-| second time play an E octave
E---------------------------------------------| chord (three strums)
e---------------------------------------------|
B---------------------------------------------|
G--13-13-13-13-13-13-99-888-666666-88-999-----|
D--x--x--x--x--x--x-xx-xxx-xxxxxx-xx-xxx------|
A--11-11-11-11-11-11-77-666-444444-66-777-----|
E---------------------------------------------|
e--------------------------------------------|
B--------------------------------------------|
G--13-13-13-13-13-13-99-888-666666-999999----|
D---x--x--x--x--x--x-xx-xxx-xxxxxx-xxxxxx----|
A--11-11-11-11-11-11-77-666-444444-777777----|
E--------------------------------------------|


Bridge:
 BABA
then chorus

then intro a bunch of times





A B E
variations - click chord images
Transpose chords:
Tuning:
Cool service:
View: Size:
A  A  A
Rating:
Layout:
  • Currently 0/5 Stars.
  • 1
  • 2
  • 3
  • 4
  • 5
 
Accuracy:
  • Currently 0/5 Stars.
  • 1
  • 2
  • 3
  • 4
  • 5
 
click stars to rate
Chordie recommends:
Get acoustic guitar lessons and electric guitar lessons at JamPlay.com
Songbook:
Login to add this song to your songbook
Support the artist
Preview/buy this song
MSN Music
Why this non-profit ad?

 
login to add comments/video/corrections