Were Not Supposed To Be Lovers

Adam Green

-------------------------------------------------------------------------------

-------------------------------------------------------------------------------
e|------------------------|
B|---1-----1-----1-----1--|
G|--0-0---0-0---0-0---0-0-|
D|-2---2-2---2-2---2-2---2|
A|3-----3-----3-----3-----|
E|------------------------|
e|------------------------------------------------|
B|---1-----1-----0-----0-----1-----1-----0-----0--|
G|--0-0---0-0---0-0---0-0---0-0---0-0---0-0---0-0-|
D|-2---2-2---2-2---2-2---2-2---2-2---2-2---2-2---2|
A|3-----3-----2-----2-----3-----3-----2-----2-----|
E|------------------------------------------------|

 AmFmCEm7CC
  e|------------------------------------------------|
  B|---1-----1-----1-----1-----1-----0-----1-----1--|
  G|--2-2---2-2---2-2---2-2---0-0---0-0---0-0---0-0-|
  D|-2---2-2---2-3---3-3---3-2---2-0---0-2---2-2---2|
  A|0-----0-----------------3-----2-----3-----3-----|
  E|------------1-----1-----------------------------|


I'm not..... Hostage; Squeezed....
 CEm7CGFAmGG7
e|-------------0----1----1------------------3--3--3--1--|
B|---1-----0---1----0----1---1--1--1--3--3---0--0--0--0-|
G|--0-0---0-0--0----0----2--2-2--2--2--0--0---0--0--0--0|
D|-2---2-0---0-2----0----3-3---3--2--2--0--0------------|
A|3-----2------3----2----3------------------------------|
E|-------------0----3----1------------------------------|


Vein... Fist Face Down Ooze as they.....

c Em C Em
e|------------------------------------------------|
B|---1-----1-----0-----0-----1-----1-----0-----0--|
G|--0-0---0-0---0-0---0-0---0-0---0-0---0-0---0-0-|
D|-2---2-2---2-2---2-2---2-2---2-2---2-2---2-2---2|
A|3-----3-----2-----2-----3-----3-----2-----2-----|
E|------------------------------------------------|

Picture..... Kissing.....

 AmFCEm7C
  e|---------------------------------------3-0-------|
  B|---1-----1-----1-----1-----1-----0--------3-1----|
  G|--2-2---2-2---2-2---2-2---0-0---0-0---0----------|
  D|-2---2-2---2-3---3-3---3-2---2-0---0-2-----------|
  A|0-----0-----------------3-----2-----3------------|
  E|------------1-----1------------------------------|


Picture..... Cutting...

Sry for the form.






Am C Em7 F Fm G G7
variations - click chord images
Transpose chords:
Tuning:
Cool service:
View: Size:
A  A  A
Rating:
Layout:
  • Currently 1/5 Stars.
  • 1
  • 2
  • 3
  • 4
  • 5
 
Accuracy:
  • Currently 1/5 Stars.
  • 1
  • 2
  • 3
  • 4
  • 5
 
click stars to rate
Chordie recommends:
Learn to play songs at Jamplay.com with video guitar lessons
Songbook:
Login to add this song to your songbook
Support the artist
Preview/buy this song
MSN Music
Why this non-profit ad?

 
login to add comments/video/corrections