Guitar Tabs, Chords and Lyrics


7 Foot Man  Adam Sandler

CHORDS:
   -------

   E   ([EADGBE]022100)
A (x02220)
B (x2444x)
C#m (x46654)
I got at least 5 requests for this song in my guestbook. I actually
think it was the same guy over and over again because I'd never
heard of this song and then suddenly I got 5 requests. But I
decided to tab it, it's easy, just 4 chords, the only trick is to
get the right rhythm, it's kinda strange. Enjoy!!
The song is mostly just bass, you don't hear the guitar much. But I've
come up with a rhythm you can use so you incorporate parts of the
bass line. I play the chords like this:
   E|---------0-0----0---0---------0-0----0---0--|
   B|--------0--0----0---0--------0--0----0---0--|
   G|-------1--------------------1---------------|
   D|------2--------------------2----------------|
   A|-----2--------2---2-------2--------2---2----|
   E|--0--------------------0--------------------|

d * u d u d u d * u d u d u
d = downstroke
u = upstroke
* = this means strum the chord down kinda slowly so you can hear
each and every string ring out, kinda like spanish guitar.
I play the A chord the same, like this:
   E|--------0-0---0---0--------0-0---0---0--|
   B|-------2--2---2---2-------2--2---2---2--|
   G|------2------------------2--------------|
   D|-----2------2---2-------2------2---2----|
   A|--0------------------0------------------|
   E|----------------------------------------|

d * u d u d u d * u d u d u
Of course you don't HAVE to play them like this, it's just a
suggestion, I think it sounds good. You just have to get the
right rhythm. Anyway, enough of my bullshit, here's the song:
INTRO:
   ------

(spoken:)
We just wrote this song on the bus the
other day, so sit back and relax.
      [E]                                                     [A]                  
   E|---4-5--4-4/5--4-4-----4-4-5--7-7---5-5/7------9-10-9/10--10-9-
   B|---5-7--5-5/7--5-5-----5-5-7--9-9---7-7/9----------------------
   G|---------------------------------------------------------------
   D|---------------------------------------------------------------
   A|---------------------------------------------------------------
   E|---------------------------------------------------------------

                                         [E]                                    
   E--10-9-5------------------4--5-5b7-5-4-5-4-2-0-2---0-0-0----
   B-------------------5--5/7-----------------------------------
   G-------------4-4/6------------------------------------------
   D------------------------------------------------------------
   A------------------------------------------------------------
   E------------------------------------------------------------

            [B]                         [A]                      [E]                  
   E--0-5-7-10-9-9-9-7-7-7-5-5-5-4-5-5-5---5-5-5\4-4-4-2-2-0--4-5-4-5-4-|
   B--------------------------------------------------------------------|
   G--------------------------------------------------------------------|
   D--------------------------------------------------------------------|
   A--------------------------------------------------------------------|
   E--------------------------------------------------------------------|

VERSE 1:
   --------

   I'm the 7 foot [E]man
I've commited no crime
   Bumping my [A]head into doorways
   It happens all the [E]time
   I'm 7 foot [A]tall and I re[E]peat
   They don't make a [A]ski boot that can fit my [E]feet
B A (stop) E
I'm 7 feet tall and I don't play basketball
VERSE 2:
   --------

   I'm 7 feet [E]tall, but I'm still just a man
   So of [A]course it hurts me a lot
   When I walk into the ceiling [E]fan
   [A]Small people say "I wish I was [E]him"
   But it's been [A]nine years since I had a [E]trim
B A (stop) E
The barber said "I can't reach the top of his head"
BRIDGE:
   -------

   7 foot [C#m]man, I cannot [E]hide
   7 foot [C#m]man, I know 'cause I've [E]tried
   7 foot [C#m]man, my last girlfreind [E]died
B A (stop) E
Because my penis is 7 foot wide!
VERSE 3:
   --------

   So the next time you [E]see me walking around
   And my [A]head's right about to hit a tree branch
   Tell me to [E]duck down
   And I'll pay you [A]back, soon you will [E]see
   By getting your [A]frisbee down from that [E]tree
B A (stop) E
I do what I can I'm the 7 foot man
   [E]7 foot man!   7 foot man!
**********************************************************************
Questions, comments, corrections, requests, send to:
qualitytabs@hotmail.com
**********************************************************************
Visit the QUALITY TABS INC. Website at:
www.geocities.com/SunsetStrip/Garage/4564/qualtabs.htm
**********************************************************************

Important: The song above is NOT stored on the Chordie server. The original song is hosted at www.guitaretab.com. Chordie works as a search engine and provides on-the-fly formatting. Chordie does not index songs against artists'/composers' will. To remove this song please click here.

Text color:
Chord color:
Chord grids: 
Font size:    
Page size: 

A B C#m E
variations - click chord images

Login - add to songbook

Transpose chords

Tuning

Rating click stars to rate

Layout
Accuracy

SHARE PAGE  




You need to log in to post comments