Fly Away From Here

Aerosmith

e-------------0-0-----|

B--0----0-----2--2----|
G--1---1------2---2---| x2
D--2--2-------2-------|
A--2----------0-------|
E--0------------------|

 EG#m
Gotta find a way, yeah I can't wait another day
 AAm
Ain't nothing gonna change, If we stay round here
 EG#m
Gotta do what it takes, Cause it's all in our hands
 AAmC#m
We all make mistakes, but it's never too late, to start again
 BAC#mBA
 Take another breath,     and say another prayer

To make a nice effect play the chords like this. You can also pick some notes to make
effect but be sure of repeat enough times to fill the space between the chords

 EG#mAAmC#mB
e--0---4----0----0----4-----2--|
B--0---4----2----1----5-----4--|
G--1---4----2----2----6-----4--|
D------------------------------|
A----------0----0----4-----2---|
E-0---4------------------------|


Chorus

 EG#mA
 Fly, away from here, anywhere,
 Am
 I don't care, we'll just
 EG#mA
 Fly, away from here, our hopes and dreams
 Am
are out there somewhere
C#m B A E? Am A
Won't let time pass us by, we'll just flyyyyyyyy

Alter the chorus

e-------------0-0--------|
B--0----0-----2----2-----|
G--1---1------2--2-------|  x1
D--2--2-------2----------|
A--2----------0----------|
E--0---------------------|

Verse 2 (The same chords and effects than the first)

Is this life? It's even harder now
There ain't no never mind, you got me by your side
And any time you want, yeah we can catch a train
And find a better life, cause we won't let nothing or no one keep gettin' us down

Pre-chorus
 BA
 Baby you and I
 C#mBA
 Can pack our bags and hit the skyyyyyyyyyyyyyy

Chorus

Bridge

 BA
 Do you see a bluer sky now? You can have a better life now
 GAC#m
 Open your eyes   
 BA
 No one here can ever stop us, they can try but we won't let them
 GAE
 No wayyyyyyyyyyyy

E A D G B e
C#m ( for this one play like this 9 11 11 9 9 9)

 BAC#mBA
 Baby you and I, Can pack our bags and say Goodbyeeeeeeeeeeeeeeeee

 EG#mAAm
Then Fly, Away from here, Anywhere, yeah I don't care
 EG#mAAm
We just Fly, Away from here, our hopes and dreams are out there somewhere
 EG#mAAm
 Flyyyyyyyyy, Away from here, yeah, anywhere, baby I don't, I don't, I don't careeeeeeeee

Solo

e-------------------------------|
B-------------------------------|
G—10/11-11b-9-11-11b—11-9-------|
D-------------------------9/11v-|
A-------------------------------|
E-------------------------------|


 AAm
We'll just flyyyyyyyyyyyyyyyyy

 End
e-------------0-0----0--|
B--0----0-----2----2-0--|
G--1---1------2--2---1--|
D--2--2-------2------2--|
A--2----------0------2--|
E--0-----------------0--|				



A Am B C#m E G G#m
variations - click chord images
Transpose chords:
Tuning:
Cool service:
View: Size:
A  A  A
Rating:
Layout:
  • Currently 2.9/5 Stars.
  • 1
  • 2
  • 3
  • 4
  • 5
 
Accuracy:
  • Currently 2.2/5 Stars.
  • 1
  • 2
  • 3
  • 4
  • 5
 
click stars to rate
Chordie recommends:
Learn to play songs at Jamplay.com with video guitar lessons
Songbook:
Login to add this song to your songbook
Support the artist
Preview/buy this song
MSN Music
Why this non-profit ad?

 
login to add comments/video/corrections