Guitar Tabs, Chords and Lyrics


Jaded  Aerosmith

--------------------------------------------------------------------------------------



Tuning:
Assisstant Guitar:_standard (EADGBe) for all chords
Lead Guitar:_______standard (EADGBe) for all progs, intro, end and solo
Chords used:
* EADGBe bend:___________________b
Bb__x13331 repeat previous chord:__/
Cm__x35543 hammer on:______________h
F___033211 pull off:_______________p
C#__x46664 palm mute:______________m
C___x35553 vibrato:________________v
A___x02220 release note:___________r
Gm7_353333 mute:___________________x
* Prog A: Prog B: Prog C:
|__F_____________|__Bb____________F_____________|__Bb_________________________F___|
e-|----------------|------------------------------|---------------------------------|
B-|----------------|--2--2-2-2-2---2h3p2---2h3-2--|--2--2-2-2-2---2h3p2---2---2-----|
G-|---------2-2----|-------------5-------5--------|-------------5-------5---5---3v--|
D-|--3--3-5-----3--|------------------------------|---------------------------------|
A-|----------------|------------------------------|---------------------------------|
E-|----------------|------------------------------|---------------------------------|

Intro:
e-|--------------------------------------------------------|
B-|------------------------------------------3--3-3--------|
G-|--2--2-2-2-2---2~h3p2---2----2~h3p2---2----------5~3p2--|repeat once more
D-|-------------5--------5---5---------5---5---------------|to end intro
A-|--------------------------------------------------------|
E-|--------------------------------------------------------|

Verse 1:
[Bb]Hey j-j-jaded
youve got your mamas style
But your yesterdays child to me
So jaded
You think thats where its at
But is that where its supposed to [Cm]be[////]
Youre gettin it all over [Cm]me[////]
X-rated
Chorus:
Bb Cm F Prog A
My my baby blue
[F]Yeah Im thinkin about you
Bb Cm F Prog A
My my baby blue
[F]Yeah Im so [Cm]jaded
[Cm]And [m]Im the one that jaded you
Verse 2:
Hey j-j-jaded
In all its misery
It will always be what I love and hated
And maybe take a ride to the other side
Were thinkin of love
Well slip into the velvet glove
And be jaded
(Chorus)
Bridge:
Your [F]thinkings so [Bb]complicate[F]d
Ive [F]had it all up to [Cm]here
[F]But its so overr[Bb]ated
Love [C#]hate it
Wouldnt [C]trade it
C# C Bb A~
love be jaded yeah
Solo:
e-|---------------------------------3-6--9h10-8----8---------------------------|
B-|---------------------------3-4-6-------------11---11p9-9h10p9h10p9h10p9h10--|
G-|--2-2-2-2-2----2h3-3-3-3-5--------------------------------------------------|
D-|------------5---------------------------------------------------------------|
A-|---------------------------------------------repeat until sound fades out---|
E-|----------------------------------------------------------------------------|

Verse 3:
Hey j-j-jaded
There aint no baby please
When Im shooting the breeze with her
When everything you see is a blur
And ectasys what you plead fr
(Chorus)
[F]Yeah youre so [Cm]jaded
[Gm7]Baby
[Cm]Jaded
[Gm7]Baby
Yeah youre so [Cm]jaded
Cause I[Cm]m t[m]he one that jaded you
End:
e-|------------------------------------------------|
B-|------------------------------------------------|
G-|--2--2-2-2-2---2~h3p2---2----2~h3p2---2---------|
D-|-------------5--------5---5---------5---5p3-3~--|
A-|--------------------------------------------3r--|
E-|------------------------------------------------|
--------------------------------------------------------------------------------------				


Important: The song above is NOT stored on the Chordie server. The original song is hosted at www.guitaretab.com. Chordie works as a search engine and provides on-the-fly formatting. Chordie does not index songs against artists/composers will. To remove this song please click here.

Text color:
Chord color:
Chord grids: 
Font size:    
Page size: 

Bb C C# Cm F Gm7
variations - click chord images

Login - add to songbook

Transpose chords

Tuning

Rating click stars to rate

Layout
Accuracy

SHARE PAGE  




You need to log in to post comments