Guitar Tabs, Chords and Lyrics


Avant Garden   Aerosmith



avant garden by aerosmith.  good song. when i first heard it i hated it, but it kinda 
on me. well, heres the intro. if u see one of these:

^
|

below a note, it means ghost bend/pre bend, not sure what the official thing for it is, 
thats how i write it out, so thats what im gonna put here.


e|---------------------------------------------------------------------------|
B|---------------------------------------------------------------------------|
G|-12------12------12-12---12------12------12-12---12------12------12-12-----|
D|-14^(15)-14^(15)-14-12---14^(15)-14^(15)-14-12---14^(15)-14^(15)-14-12-----|
A|--------------^-----------------------^-----------------------^---------15-|
E|--------------|-----------------------|-----------------------|------------|


e|--------------------------------|
B|--------------------------------|
G|-12------12-12------------------|
D|-14^(15)-14-12------------------|
A|------^--------15-13-15-/17-15--|
E|------|-------------------------|

then the other instruments come in, they add effects, and its all the same except for 
second line, which is:

e|-------------------------------|
B|-------------------------------|
G|-12------12-12-----------------|
D|-14^(15)-14-12-----------------|
A|------^--------15-17-15-13-15--|
E|------|------------------------|

not much different, but it is.  so thats the intro to avant garden for ya.  pretty easy, 
good too.  ive looked at some of the other tabs, and i cant believe no-one has gotten 


Important: The song above is NOT stored on the Chordie server. The original song is hosted at www.guitaretab.com. Chordie works as a search engine and provides on-the-fly formatting. Chordie does not index songs against artists'/composers' will. To remove this song please click here.

This song is displayed as text-only. Transposing and tuning is only available for chordpro-songs.

Login - add to songbook

Rating click stars to rate

Layout
Accuracy

SHARE PAGE  




You need to log in to post comments