Guitar Tabs, Chords and Lyrics


Mach Die Augen Zu  Aerzte

e|---------------------------|---------------------------------------|


B|---------------------------|---------------------------------------|


G|---------------------------|-------------2-------------------------|

D|-/4--4-2-4-2---------------|------2-4--4---4-2---------------------|
A|--------------4-2-4--4-2-0-|--/4---------------4-2-4--4-2-0--------|
E|---------------------------|---------------------------------5-4-2-|
e|--------------------------|---------------------------------|
B|--------------------------|---------------------------------|
G|--------------------------|-------2-------------------------|
D|-4-2-4--4-2-------------2-|--4--4---4-2---------------------|
A|------------4--4-2-4--4---|-------------4-2-4--4-2-0--------|
E|--------------------------|---------------------------5-4-2-|
e|--------------------------|--------------------------------|-------------|
B|--------------------------|--------------------------------|-------------|
G|--------------------------|-------2-------2--4b-4b-4b--2---|-------------|
D|-4-2-4--4-2-------------2-|--4--4---4-2-4----------------4-|-4-2-4--4-2--|
A|------------4--4-2-4--4---|--------------------------------|-------------|
E|--------------------------|--------------------------------|-------------|
e|-----------|--------------------------------------------------------------|
B|-----------|--------------------------------------------------------------|
G|-----------|-----------------------------------14-------------------------|
D|-/11-11-11-|-14-16--16-16--14--------14-16--16----16-14-------------------|
A|-----------|------------------16--16--------------------16-14--16-16-16---|
E|-----------|--------------------------------------------------------------|
e|------------|------------------------------|
B|------------|------------------------------|
G|------------|------------------------------| double stop thingy is
D|--14-16--16-|--16/18-18-18-18-18-18-18-18--| repeated several times
A|------------|--14/16-16-16-16-16-16-16-16--|
E|------------|------------------------------|
[F#5]Mach die Augen zu und [A5]kuess mich    [F#5]
und dann sag, dass du mich [A5]liebst   [G#5]
ich weiss genau, es ist nicht[B5] wahr, doch ich [A5]spuere keinen [G#5]Unterschied
wenn[F#5] du dich mir hing[C#5]ibst
[F#5]mach die Augen zu und [A5]kuess mich    [F#5]
mach mir ruhig etwas [A5]vor      [G#5]
ich vergesse, was pa[B5]ssiert ist und ich [A5]hoffe und ich [G#5]traeume
ich haett[F#5]' dich noch nicht ver[C#5]lorn
[B5]es ist [A5]mir total e[B5]gal ob du [A5]wirklich etwas [G#5]fuehlst  [F#5]
tu was du willst  [F#5]
F#5 A5 + Interlude Riff


[F#5]mach die Augen zu und [A5]kuess mich   [F#5]
ist es auch das letzte [A5]Mal   [G#5]
lass uns den Moment des [B5]Abschieds noch verz[A5]oegern
lass mich [G#5]jetzt noch nicht all[F#5]ein mit meiner [C#5]Qual   [F#5]
mach die Augen zu und [A5]kuess mich   [F#5]
mach mir ruhig etwas [A5]vor    [G#5]
wenn du willst kannst du dann [B5]gehen, aber [A5]denk dran
ohne [G#5]dich - ohne [F#5]dich bin ich verl[C#5]orn
[B5]es ist mir [A5]absolut [B5]egal ob du [A5]nur noch mit mir [G#5]spielst [F#5]
tu was du willst [F#5]
Solo


[F#5]mach die Augen zu... [B5]mach die Augen zu... [D5]mach die [A5]Augen zu
und kuess mich...

End on F#5


THERE YOU GO!!! I THINK IT'S PRETTY CLOSE TO THE RECORD

tabbed by mamsen

Important: The song above is NOT stored on the Chordie server. The original song is hosted at www.guitaretab.com. Chordie works as a search engine and provides on-the-fly formatting. Chordie does not index songs against artists'/composers' will. To remove this song please click here.

Text color:
Chord color:
Chord grids: 
Font size:    
Page size: 

A5 B5 C#5 D5 F#5 G#5
variations - click chord images

Login - add to songbook

Transpose chords

Tuning

Rating click stars to rate

Layout
Accuracy

SHARE PAGE  




You need to log in to post comments