Guitar Tabs, Chords and Lyrics


Zu Spaet  Aerzte

-----------------------------------------------------------------------|


-----------------------------------------------------------------------|


-----------------------------------------------------------------------|

-5---5-7-5---5-7---7-9-7---7-10----10-12-10----10-12----14-12----------|
---5-------5-----7-------7------10----------10-------12-------15-14-12-|
-----------------------------------------------------------------------| 2x
[F]Warum hast du mir das angetan,
[A#]ich habs von einem Bekanntem erfahren,
[F]du hast jetzt einen neuen Freund,
[A#]zwei wochen lang hab ich nur geweint.
F (mute)
Jetzt schaust du weg,

C (mute)
grüßt mich nicht mehr,

A# EXB2
und ich lieb dich immer noch so sehr.

F (mute)
Ich weiß was dir,

C (mute)
an ihm gefällt,

A# EXB2
ich bin arm, und er hat Geld.

[G]Du liebst ihn nur, weil er ein Auto hat,

[C]und nicht wie ich, ein klappriges Damenrad  [A#]        [D]
Refrain: (Gitarre Intro spielen!!! Bass mit EXB1!!!)
Doch eines [G]Tages, werd ich mich [A]rächen,

[C]ich werd die Herzen aller [D]Mädchen brechen.

Dann bin [G]ich eis Star, der in der [A]Zeitung steht,
[C]und dann tut es dir leid, [D]doch dann ist es zu Spät
Bridge 1: (Gitarre Intro Spielen!!! Bass mit EXB3 !!!)
[G]Zu Spät (Zu spät), [A]Zu Spät (Zu spät),

[C]Zu Spät (Zu spät), [D]doch dann ist es zu Spät.

[G]Zu Spät (Zu spät), [A]Zu Spät (Zu spät),
[C]Zu Spät (Zu spät), [D]dann ist alles viel zu Spät.
Verse 2:
[F]Du bist mit ihm im Theater gewesen,

[A#]ich hab dir nur Fix und Foxi vorgelesen.

[F]Du warst mit ihm essen, natürlich im Rizz,
[A#]Bei mir gabs nur Currywurst mit Pomfritz.
F (mute)
Der Gedanke,

C (mute)
bringt mich ins grab,

A# EXB2
er kriegt das, was ich nicht hab.

F (mute)
Ich hasse ihn,

C (mute)
wenn es das gibt,

A# EXB2
so wie ich dich vorher geliebt.

[G]Ich wollte ihn verprügeln, deinen Supermann,

[C]ich wusste nicht, dass er auch Karate kann. [A#]        [D]
Refrain: (Wieder das Intro und EXB1!!!)
Doch eines [G]Tages, werd .......

Bridge 2: (Kein Bass!!!)
[G]Eines Tages werd ich mich [A]rächen,

[C]ich werd die Herzen aller [D]Mädchen brechen.

Dann bin i[G]ch ein Star, und du l[A]äufst hinter mir her,
[C]doch dann ist es zu Spät, dann kenn ich [D]dich nicht mehr.
Bridge 1:
[G]Zu Spät (Zu Spät) .....


---------------------------------------------------------------------



EXB1:
I I I I I
-----------------------------------------------------------------|
-----------------------------------------------------------------|
---------------------------------3-3-3-3-3-3-3-3-5-5-5-5-5-5-5-5-|
-3-3-3-3-3-3-3-3-5-5-5-5-5-5-5-5---------------------------------|



EXB2:
I I
--------------|
--------------|
-1-1-0----0---|
-------3----3-|



EXB3:
I I I
---------------------------------|
---------------------------------|
-----------------3-----3-5-----5-|
-3-----3-5-----5-----------------|				


Important: The song above is NOT stored on the Chordie server. The original song is hosted at www.guitaretab.com. Chordie works as a search engine and provides on-the-fly formatting. Chordie does not index songs against artists'/composers' will. To remove this song please click here.

Text color:
Chord color:
Chord grids: 
Font size:    
Page size: 

A A# C D F G
variations - click chord images

Login - add to songbook

Transpose chords

Tuning

Rating click stars to rate

Layout
Accuracy

SHARE PAGE  




You need to log in to post comments