Guitar Tabs, Chords and Lyrics


Halloween   Afi



-------------------------------------------------------------------------------
			     Halloween - A.F.I.
-------------------------------------------------------------------------------
Tabbed by: Steven
Email: lp1ckl3@yahoo.com

Intro:
--------------------|
-0---------------0--|
-0----------0----0--|
-3----------3----3--|
-2----------2----2--|
-1----------1----1--|

Verse:
-6—---9---2---4---6-|
-6—---9---2---4---6-|
-7---10---3---5---7-|
-8---11---4---6---8-|
-8---11---4---6---8-|
-6—---9-1-2---4---6-|

--9---2---4---6---7-6-|
--9---2---4---6---7-6-|
-10---3---5---7---8-7-|
-11---4---6---8---9-8-|
-11---4---6---8---9-8-|
--9-1-2---4---6---6-6-| x2 (repeat Verse)

-----------------6---7-6-------------------|
-----------------6---7-6-------------------|
-----------------7---8-7-------------------|
-3-4-3-4-3-4-3-4-8---9-8---3-4-3-4-3-4-3-4-|
-3-4-3-4-3-4-3-4-8---9-8---3-4-3-4-3-4-3-4-|
-1-2-1-2-1-2-1-2-6---6-6---1-2-1-2-1-2-1-2-|

Chorus:
-6---4---6---4---|
-6---4---6---4---|
-7---5---7---5---|
-8---6---8---6---|
-8---6---8---6---|
-6---4---6---4---|

Verse:
-6—---9---2---4---6-|
-6—---9---2---4---6-|
-7---10---3---5---7-|
-8---11---4---6---8-|
-8---11---4---6---8-|
-6—---9-1-2---4---6-|

--9---2---4---6-|
--9---2---4---6-|
-10---3---5---7-|
-11---4---6---8-|
-11---4---6---8-|
--9-1-2---4---6-|

Chorus:               Outro:
-6---4---6---4---|    -6---4---6------|
-6---4---6---4---|    -6---4---6------|
-7---5---7---5---|    -7---5---7---0--|
-8---6---8---6---|    -8---6---8---3--|
-8---6---8---6---|    -8---6---8---2--|
-6---4---6---4---| x3 -6---4---6---1~-|

yeah that's it.

| /  slide up
| \  slide down
| h  hammer-on
| p  pull-off
| ~  vibrato
| +  harmonic
| x  Mute note


Important: The song above is NOT stored on the Chordie server. The original song is hosted at www.guitaretab.com. Chordie works as a search engine and provides on-the-fly formatting. Chordie does not index songs against artists'/composers' will. To remove this song please click here.

This song is displayed as text-only. Transposing and tuning is only available for chordpro-songs.

Login - add to songbook

Rating click stars to rate

Layout
Accuracy

Jango Player

SHARE PAGE  




You need to log in to post comments