The Leaving Song

Afi

 EmGD
 Walked away.. heard them say..
 AmC
"Poisoned hearts will never change..
 GEm
Walk away, again"..
 EmGD
 Turned away, in disgrace..
 AmC
Felt the chill upon my face..
 GDEm
Cooling from, within..

Chorus

 CD
 Hard to notice..
 B5Am
 Gleaming from the sky..
C Am D--->(let it ring)
When you're staring at the cracks...

 EmGD
 Hard to notice..    
 AmC
What is passing by.. 
 GDEm
With eyes lowered, You ..

Verse

 EmGD
 Walked away.. heard them say..
 AmC
"Poisoned hearts will never change..
 GDEm
Walk away, again"

e|---------------------------------------------------------|
B|------------------------------3-3-3-3-3------------------|
G|----------------0-0-0-0-0--------------------------------|
D|--2--2--2--4-4----------------------------4-4-4-4-5-4----|  x 2 (muted)
A|---------------------------------------------------------|
E|---------------------------------------------------------|


...all the cracks they lead right 2 me, and all the cracks will crawl right through me

e|---------------------------------------------------------------|
B|----0---0---0------0---0----0-----3---3---3------3---3---3-----|
G|------0---0---0--0---0----0---0-0---0---0---0------4---4---4---|
D|--2--------------------------------------------4---------------|  x 2
A|---------------------------------------------------------------|
E|---------------------------------------------------------------|


...all the cracks they lead right 2 me, and all the cracks will crawl right through me

e|------2add3--2----------------------------|
B|--1---3------3----------------------------|
G|--2---2------2--------------0-------------|
D|--2---------------------------4-0---------|
A|------------------------------------------|
E|------------------------------------------|


as i fell apart as i

 EmGD
Walk away.. heard them say..
 AmC
Poisoned hearts will never change..
 GDEm
Walk away, again..    
 EmGD
 Turned away, in disgrace..
 AmC
Felt the chill upon my face..
 GDEm
Cooling from, within...    

solo

e|---------------------------------------------7--7-7-8-7----------|
B|--5-5/7----8-10--7--7-8--------12--10--8--10------------7--------|
G|--------7----------------7--9------------------------------------|
D|-----------------------------------------------------------------|
A|-----------------------------------------------------------------|
E|-----------------------------------------------------------------|
e|--7-----8-7-----7---7-----8-7--------7------7--------------------|
B|----8-------8-----8---8-8-----8--------8------8------------------|
G|------9-------9------------------9-------9-----------------------|
D|-----------------------------------------------------------------|
A|-----------------------------------------------------------------|
E|-----------------------------------------------------------------|


FIN


Am B5 C D Em G
variations - click chord images
Transpose chords:
Tuning:
Cool service:
View: Size:
A  A  A
Rating:
Layout:
  • Currently 3.4/5 Stars.
  • 1
  • 2
  • 3
  • 4
  • 5
 
Accuracy:
  • Currently 3.1/5 Stars.
  • 1
  • 2
  • 3
  • 4
  • 5
 
click stars to rate
Chordie recommends:
Get acoustic guitar lessons and electric guitar lessons at JamPlay.com
Songbook:
Login to add this song to your songbook
Support the artist
Preview/buy this song
MSN Music
Why this non-profit ad?

 
login to add comments/video/corrections