Guitar Tabs, Chords and Lyrics


Forevermore   After Image




artist:after image
song:forevermore
tabbed by:Madrona Adones





Intro:


e| ---------0---0h2-0----------------3-----3----------------------| 
B| ------3-------------3----------3-----------3-------------------|
G| ---2------------------2----------------------0-----------------|2X
D| -0-------------------------------------------------------------|
A| ----------------------------2----------------------------------|
E| -------------------------3-------------------------------------|

Verse:
e| ---------0-------------------------0-------------------| 
B| ------3-----3-----3--------------3---3----3------------|
G| ---2----------2-----2-------------------0---0----------|  3X then
D| -0-----------------------------------------------------|
A| ----------------------------2--------------------------|
E| -------------------------3-----------------------------|


e| ---------0---0h2-0----------------3-----3----------------------| 
B| ------3-------------3----------3-----------3-------------------|
G| ---2------------------2----------------------0-----------------|
D| -0-------------------------------------------------------------|
A| ----------------------------2----------------------------------|
E| -------------------------3-------------------------------------|

Verse2 :the same tabbed in verse1 but:(5x)
Then  tapos ito
e| ---------0---0h2-0----------------3-----3----------------------| 
B| ------3-------------3----------3-----------3-------------------|
G| ---2------------------2----------------------0-----------------|
D| -0-------------------------------------------------------------|
A| ----------------------------2----------------------------------|
E| -------------------------3-------------------------------------|

Chorus:
DM7- Em-Bm- G(2x) then
D-G(2x)


Yun lang sana magustuhan nyu
Ito nga pla email ko jaymar_mad@yahoo.com





Important: The song above is NOT stored on the Chordie server. The original song is hosted at www.guitaretab.com. Chordie works as a search engine and provides on-the-fly formatting. Chordie does not index songs against artists/composers will. To remove this song please click here.

This song is displayed as text-only. Transposing and tuning is only available for chordpro-songs.

Login - add to songbook

Rating click stars to rate

Layout
Accuracy

SHARE PAGE  




You need to log in to post comments