Chordie logo


Quello Che Non Ce   Afterhours



AFTERHOURS
QUELLO CHE NON C'E

tabbed by dan

standard tuning

|------------------------------------------|
|-----1--1--1-------------1--1--1----------|
|-----2--2--2------0h2----2--2--2------0h2-|
|-----2--2--2--0h2--------2--2--2--0h2-----|
|--0--0--0--0----------0--0--0--0----------|
|------------------------------------------|
intro

|-----------------------------1--1--1--1---|
|--1--1----------1--1---------1--1--1--1---|
|--2--2------0h2-2--2------0--2--2--2--2---|
|--2--2--0h2-----2--2--0h2----3--3--3--3---|
|--0--0----------0--0---------3--3--3--3---|
|-----------------------------1--1--1--1---|
verses (played loosely)

|--------------------3--3--3--3--3--3-----|
|--1--1--1--1--1--1--3--3--3--3--3--3-----|
|--0--0--0--0--0--0--0--0--0--0--0--0-----|
|--2--2--2--2--2--2--0--0--0--0--0--0-----|
|--3--3--3--3--3--3--2--2--2--2--2--2-----|
|--------------------3--3--3--3--3--3-----|
verses continued

play the intro part before going into choruses

|--------------3--3--3--3--------------1--1--1--1--|
|--1--1--1--1--3--3--3--3--3--3--3--3--1--1--1--1--|
|--0--0--0--0--0--0--0--0--3--3--3--3--2--2--2--2--|
|--2--2--2--2--0--0--0--0--3--3--3--3--3--3--3--3--|
|--3--3--3--3--2--2--2--2--1--1--1--1--3--3--3--3--|
|--------------3--3--3--3--------------1--1--1--1--|
choruses

|----------------------3--3--3--3--3--3--3---|
|--1--1--1--1--1--1----3--3--3--3--3--3--3---|
|--0--0--0--0--0--0----0--0--0--0--0--0--0---|
|--2--2--2--2--2--2----0--0--0--0--0--0--0---|
|--3--3--3--3--3--3----2--2--2--2--2--2--2---|
|----------------------3--3--3--3--3--3--3---|
choruses continued

for outro, manuel first strums chorus chords very quietly, then plays the following
riff:
|--------------------------------|------------------------|
|--------------------------------|------------------------|
|--------4-4h6-6--4-6-4----------|------------------------|
|--/4-7-----------------7-4-7-7\-|--4--7--6-7---4--7--6-7-|
|--------------------------------|------------------------|
|--------------------------------|------------------------|
                                               play this bit lots

the second part of outro builds up to strumming, so just play loosely.

that's about everything.
any comments, suggestions etc. email me at yellowledbetter_69@hotmail.co.uk


Important: The song above is NOT stored on the Chordie server. The original song is hosted at www.guitaretab.com. Chordie works as a search engine and provides on-the-fly formatting. Chordie does not index songs against artists/composers will. To remove this song please click here.

This song is displayed as text-only. Transposing and tuning is only available for chordpro-songs.

Login - add to songbook

Rating click stars to rate

Layout
Accuracy

SHARE PAGE  




You need to log in to post comments