Guitar Tabs, Chords and Lyrics


La Verita Che Ricordavo   Afterhours



AFTERHOURS

LA VERITA CHE RICORDAVO

tabbed by dan (yellowledbbeter_69@hotmail.co.uk)

Dropped-D tuning

|-----------------------------|
|-----------------------------|
|--7--7--7--7-7-7-7--7-7-7-7--|
|--7--7--7--7-7-7-7--7-7-7-7--|
|--5--5--5--5-5-5-5--5-5-5-5--|
|--0--0--0--0-0-0-0--0-0-0-0--|
verses    (just strum with same rhythm as lyrics

|-------------------------------------|
|-------------------------------------|
|--------------------7--7--7-7-7-7-7--|
|--5--5--5-5-5--5-5--7--7--7-7-7-7-7--|
|--5--5--5-5-5--5-5--5--5--5-5-5-5-5--|
|--5--5--5-5-5--5-5--0--0--0-0-0-0-0--|
verses part 2

|---------------------------------------------|
|---------------------------------------------|
|--4--4--4-4--5--5--5-5--7--7--7-7--7--7--7---|
|--4--4--4-4--5--5--5-5--7--7--7-7--7--7--7---|
|--2--2--2-2--3--3--3-3--5--5--5-5--5--5--5---|
|------------------------0--0--0-0--0--0--0---|
chorus

|------------------------------|
|------------------------------|
|--7-7-7-7-7-7--7-7-7/10\7-----|
|--7-7-7-7-7-7--7-7-7/10\7-----|
|--5-5-5-5-5-5--5-5------------|
|------------------------------|
break 1                x2

|-----------------------------|
|-----------------------------|
|--10-13-0-0-8-0-7-0-5-0-0-4--|
|-----------------------------|
|-----------------------------|
|-----------------------------|
break 1/ verse 3 (first half only, then play 2nd part of other verses)
note: i don't think this is 100% correct, i had to use the video version to be able to hear it
properly, but it's somewhere along those lines.

the outro is just D but with lots of distortion, just improvise.



Important: The song above is NOT stored on the Chordie server. The original song is hosted at www.guitaretab.com. Chordie works as a search engine and provides on-the-fly formatting. Chordie does not index songs against artists'/composers' will. To remove this song please click here.

This song is displayed as text-only. Transposing and tuning is only available for chordpro-songs.

Login - add to songbook

Rating click stars to rate

Layout
Accuracy

SHARE PAGE  




You need to log in to post comments