Chordie logo

Rapace   Afterhours



Band: Afterhours

title: "Rapace"

album: "Hai paura del buio?"

tabbed by Damiano Fassari.

Guitar 1:

intro:

e|-----------|
B|-4----5--7-|
G|-4----5--7-|
D|-4----5--7-|
A|-2----3--5-|
E|-2----3--5-|

verse:

|-----------------------------------|
|-4-4-4-4-4-4-4-4--5-5-5-5--7-7-7-7-|
|-4-4-4-4-4-4-4-4--5-5-5-5--7-7-7-7-|
|-4-4-4-4-4-4-4-4--5-5-5-5--7-7-7-7-|
|-2-2-2-2-2-2-2-2--3-3-3-3--5-5-5-5-|
|-2-2-2-2-2-2-2-2--3-3-3-3--5-5-5-5-|

chorus:

|------------------------------------------|
|-12-12-12-12-12-12-12-12--9-9-9-9-9-9-9-9-|
|-12-12-12-12-12-12-12-12--9-9-9-9-9-9-9-9-|
|-12-12-12-12-12-12-12-12--9-9-9-9-9-9-9-9-|
|-10-10-10-10-10-10-10-10--7-7-7-7-7-7-7-7-|
|-10-10-10-10-10-10-10-10--7-7-7-7-7-7-7-7-|

bridge:

|-----------|
|-4----5--7-|
|-4----5--7-|
|-4----5--7-|
|-2----3--5-|
|-2----3--5-|

outro:

|-----------|
|-4----5--7-|
|-4----5--7-|
|-4----5--7-|
|-2----3--5-|
|-2----3--5-|



Guitar 2:

(in this song the second guitar plays like the first one, 
unless during the second part of the verse and during the bridge).

during this two parts it plays like this:

e|-------------|
B|-3--5p3--0---|
G|-------------|
D|-------------|
A|-------------|
E|-------------|


order:

-intro x6
-verse x4

-chorus x4
-bridge x2
-verse x4
-chorus x4
-bridge x4
-verse x2
-chorus x4
-outro x13



Important: The song above is NOT stored on the Chordie server. The original song is hosted at www.guitaretab.com. Chordie works as a search engine and provides on-the-fly formatting. Chordie does not index songs against artists/composers will. To remove this song please click here.

This song is displayed as text-only. Transposing and tuning is only available for chordpro-songs.

Login - add to songbook

Rating click stars to rate

Layout
Accuracy

SHARE PAGE  



You need to log in to post comments