Guitar Tabs, Chords and Lyrics


Baby Im An Anarchist   Against Me



“Baby I’m an Anarchist”
By:
Against Me

Intro:

e[------------------0---------0---------1-1---3---333--33--]
B[------------------1---------1---------1-1---3---555--33--]
G[------------------0---------2---------2-2---4---444--44--]
D[------------------2---------2---------3-3---5---555--55--]
A[----0--2--0--3----3---2--0--0---------3-3---5------------]
E[------------------0-------------3--1--1-1---3---3--------]

e[--------0--------------1-1-1-1------(3)---------]
B[--------1--------------1-1-1-1------(3)---------]
G[--------0--------------2-2-2-2------(0)---------]
D[--------2--------------3-3-3-3------(0)---------]
A[----3---3----2----0----3-3-3-3------(2)---------]
E[--------0--------------1-1-1-1------(3)---------]


Verse:

e[----0--0------0--0------1--1------3--3------------]
B[----1--1------1--1------1--1------3--3------------]
G[----0--0------2--2------2--2------4--4------------]
D[----2--2------2--2------3--3------5--5------------]
A[----3--3------0--0------3--3------5--5----Repeat--]
E[------------------------1--1------3--3----X4------]


e[----1-1----3-3----0-0----0-0----0-0----3-3----1-1----3-----------(0)-]
B[----1-1----3-3----1-1----1-1----1-1----3-3----1-1----3-----------(1)-]
G[----2-2----4-4----0-0----0-0----2-2----4-3----2-2----4-----------(0)-]
D[----3-3----5-5----2-2----2-2----2-2----5-5----3-3----5-----------(2)-]
A[----3-3----5-5----3-3----2-2----0-0----5-5----3-3----5---Repeat--(3)-]
E[----1-1----3-3----0-0----0-0----0-0----3-3----1-1----3---X2------(0)-]


Chorus:

e[----0-0----1-1----0-0----3-3----0-0----1-1----1-1----3-3----]
B[----1-1----1-1----1-1----3-3----1-1----1-1----1-1----3-3----]
G[----0-0----2-2----0-0----0-0----0-0----2-2----0-0----0-0----]
D[----2-2----3-3----2-2----0-0----2-2----3-3----2-2----0-0----]
A[----2-2----3-3----3-3----2-2----2-2----3-3----3-3----2-2----]
E[----0-0----1-1----0-0----3-3----0-0----1-1----0-0----3-3----]


e[----0-0-0-0-0-0----1-1-1-1-1-1----(3)--(3)--(3)----------------------]
B[----1-1-1-1-1-1----1-1-1-1-1-1----(3)--(3)--(3)----Repeat-Intro------]
G[----0-0-0-0-0-0----2-2-2-2-2-2----(4)--(4)--(4)----X1----------------]
D[----2-2-2-2-2-2----3-3-3-3-3-3----(5)--(5)--(5)----After-Repeating --]
A[----2-2-2-2-2-2----3-3-3-3-3-3----(5)--(5)--(5)---Intro play verse1--]
E[----0-0-0-0-0-0----1-1-1-1-1-1----(3)--(3)--(3)----------------------]



                                                          Tabbed by:
                                                               
                                                          Benny Perkins


Important: The song above is NOT stored on the Chordie server. The original song is hosted at www.guitaretab.com. Chordie works as a search engine and provides on-the-fly formatting. Chordie does not index songs against artists'/composers' will. To remove this song please click here.

This song is displayed as text-only. Transposing and tuning is only available for chordpro-songs.

Login - add to songbook

Rating click stars to rate

Layout
Accuracy

SHARE PAGE  




You need to log in to post comments