Chordie logo


Turn Those Clapping Hands Into Angry Balled Fists   Against Me



Tuning- Standard
p= pull off
h= hammer on

Intro
e|----------|-2----2---------------2-----7-|
b|----------|-3-------3--3----3-------3----|
g|----------|-4----------4----4------------|
d|----------|------------------------------|
a|-2p0-h2p0-|------------------------------|
e|----------|------------------------------|

Verse
e|---------------------|
b|---------------------|
g|-4--------------4----|
d|-4----4----2----4----|
a|-2----4----2----2----|
e|------2----0---------|

Chorus/Breakdown Part
e|------------------------------------------|
b|------------------------------------------|
g|-4--6--7--9--2-----------------------4----|
d|-4--6--7--9--2----4-2-0--2----4-2-0--4----|
a|-2--4--5--7--0-----------2-----------2----|


Important: The song above is NOT stored on the Chordie server. The original song is hosted at www.guitaretab.com. Chordie works as a search engine and provides on-the-fly formatting. Chordie does not index songs against artists/composers will. To remove this song please click here.

This song is displayed as text-only. Transposing and tuning is only available for chordpro-songs.

Login - add to songbook

Rating click stars to rate

Layout
Accuracy

SHARE PAGE  




You need to log in to post comments