Chordie logo


Sowilo Rune   Agalloch



-------------------------------------------------------------------------------
			     Sowilo Rune - Agalloch
-------------------------------------------------------------------------------
Tabbed by: Jeff Cameron
Email: jcameron99@gmail.com

Tuning: Standard

This sounds right to me, enjoy!

Strum, repeat through song
e|-------------------------------2-2-2-2-2-2---------------------------------|
B|---3-3-3-3-3-3---5-5-5-5-5-5---3-3-3-3-3-3---5-5-5-5-5-5-------------------|
G|---0-0-0-0-0-0---4-4-4-4-4-4---0-0-0-0-0-0---4-4-4-4-4-4-------------------|
D|---2-2-2-2-2-2---0-0-0-0-0-0-----------------0-0-0-0-0-0-------------------|
A|---------------------------------------------------------------------------|
E|---------------------------------------------------------------------------|

Distorted solo (this could be played an octave lower with a +1 octave pedal, at least it 
that way):
e|------------------------------------------------------------12-14~~~-------|
B|--15-/17~~~--15-17~~~--/15-14-12--/15-14-12—-/15-14-12--/15----------------|
G|---------------------------------------------------------------------------|
D|---------------------------------------------------------------------------|
A|---------------------------------------------------------------------------|
E|---------------------------------------------------------------------------|

e|---------------------------------------------------------------------------|
B|---------------------------------------------------------------------------|
G|---4~~~~-/7-5-4--/7-5-4--/7~~~-4—-2----------------------------------------|
D|---------------------------------------------------------------------------|
A|---------------------------------------------------------------------------|
E|---------------------------------------------------------------------------|


| /  slide up
| \  slide down
| h  hammer-on
| p  pull-off
| ~  vibrato
| +  harmonic
| x  Mute note


Important: The song above is NOT stored on the Chordie server. The original song is hosted at www.guitaretab.com. Chordie works as a search engine and provides on-the-fly formatting. Chordie does not index songs against artists/composers will. To remove this song please click here.

This song is displayed as text-only. Transposing and tuning is only available for chordpro-songs.

Login - add to songbook

Rating click stars to rate

Layout
Accuracy

SHARE PAGE  




You need to log in to post comments