Guitar Tabs, Chords and Lyrics


Tomorrow Will Never Come   Agalloch



Agalloch - Tomorrow will never come (intro)



tune down step


D |-3--3-0--------------------------0-3s5-5------------------|
A |--0----1-------1--3-3--1-0----0-0------3------------------|
F |---0----0-------0----0---------0-------0------------------|
G |---------------------------------------4------------------|
C |------3--------0-----------------------5------------------|
D |-0------------------2---------3---------------------------|


 |-7--7---5--5--3--2h3p2p0-2--2----------0---------0--------|
 |--0------0-----0----------3--------1-----1---0-----0------|
 |---0------0-----0----------2---------0---------0----------|
 |-------------------------0--------------------------------|
 |-----------------------------------3---------2------------|
 |-3------2-----0-------------------------------------------|


 |-----0----------------------------------------------------|
 |-1-----1s3---------7-8--10--------------------------------|
 |---0-------------7----------------------------------------|
 |-------------4--------------------------------------------|
 |-3---------5----------------------------------------------|
 |----------------------------------------------------------|


 |-7--7---5--5--3--2h3p2p0-2--2----------0---------0--------|
 |--0------0-----0----------3--------1-----1---0-----0------|
 |---0------0-----0----------2---------0---------0----------|
 |-------------------------0--------------------------------|
 |-----------------------------------3---------2------------|
 |-3------2-----0-------------------------------------------|



 |-----0-------------2-3-3----------------------------------|
 |-1-----1s3-------3-----0----------------------------------|
 |---0-------------------0----------------------------------|
 |-------------4---------0----------------------------------|
 |-3---------5-----------2----------------------------------|
 |-----------------------3----------------------------------|


 |----------------------------------------------------------|
 |----------------------------0-----------------------------|
 |-------------0---------2s4--0-----------0--------2s4--0---|
 |-----------2--------3-------2---------2--------3------2---|
 |--------2---------3---------2----------------3--------2---|
 |--3-2-0---------1-----------0---3-2-0------1----------0---|


 |----------------------0-----------------------------------|
 |----------------------0-----------------------------------|
 |-------0--------2p0---0-----------------------------------|
 |-----2--------3-------4-----------------------------------|
 |---2--------3---------2-----------------------------------|
 |-0--------1-----------0-----------------------------------|



Then start strumming that last chord for a bit, then strum G, D, Em



maybe someone can improve on this?! let me know at pesta29@googlemail.com


Important: The song above is NOT stored on the Chordie server. The original song is hosted at www.guitaretab.com. Chordie works as a search engine and provides on-the-fly formatting. Chordie does not index songs against artists'/composers' will. To remove this song please click here.

This song is displayed as text-only. Transposing and tuning is only available for chordpro-songs.

Login - add to songbook

Rating click stars to rate

Layout
Accuracy

SHARE PAGE  




You need to log in to post comments