Guitar Tabs, Chords and Lyrics


Limbs   Agalloch



Artist : Agalloch
Song   : Limbs
Album  : Ashes Against The Grain

 D-A-D-G-B-e
If you have any comments , mail me :

punkchen@freenet.de

Guitar 1:

 Riff 1           Let Ring   Use Delay
e----------------------------------------------------17--------------------|
B-------15--------------14-------------------------------------------------|
G-----------------------------------------16-----------------------14------|
D--------------------------------------------------------------------------|
A--------------------------------------------------------------------------|
D--------------------------------------------------------------------------|

After Secong Time  Guitar 2 plays  Riff 2

Guitar 1 still plays Riff 1

e---------------------------------------------------------------------|
B---------------------------------------------------------------------|
G---------------------------------------------------------------------|
D---5-5-5-5-5-5-5---0-0-0-0-0-0-0---2-2-2-2-2-2-2---4-4-4-4-4p0-0-0-0-|
A---5-5-5-5-5-5-5---0-0-0-0-0-0-0---2-2-2-2-2-2-2---4-4-4-4-4p0-0-0-0-|
D---5-5-5-5-5-5-5---0-0-0-0-0-0-0---2-2-2-2-2-2-2---4-4-4-4-4p0-0-0-0-|

Riff 3     E=11    Not sure about this


e---------------------------------------------------------------------|
B---------------------------------------------------------------------|
G--7--------7\4-444--7\4-444---7/E-EEE---7/E-EEE----------------------|
D--x-(x18)--x\x-xxx--x\x-xxx---x/x-xxx---x/x-xxx----------------------|
A--5--------5\2-222--5\2-222---5/9-999---5/9-999----------------------|
D---------------------------------------------------------------------|


e---------------------------------------------------------------------|
B---------------------------------------------------------------------|
G--7\4-44-4/7---7\4-44---7/E-EEE---7/E-EEE---9/E-EEE------------------|
D--x\x-xx-x/x---x\x-xx---x/x-xxx---x/x-xxx---x/x-xxx------------------|
A--5\2-22-2/5---5\2-22---5/9-999---5/9-999---7/9-999------------------|
D---------------------------------------------------------------------|



Important: The song above is NOT stored on the Chordie server. The original song is hosted at www.guitaretab.com. Chordie works as a search engine and provides on-the-fly formatting. Chordie does not index songs against artists'/composers' will. To remove this song please click here.

This song is displayed as text-only. Transposing and tuning is only available for chordpro-songs.

Login - add to songbook

Rating click stars to rate

Layout
Accuracy

SHARE PAGE  




You need to log in to post comments