""; ?> Remote Control by Age Of Electric - guitar chords, guitar tabs and lyrics - chordie

Remote Control

Age Of Electric

E---------------------------------------------------|

B---------6-5------6-5----------6-5-------6-5-------|
G---5-3------5-3-----------5-3------5-3-------------|
D---------------------------------------------------|
A---------------------------------------------------|
E---------------------------------------------------|

 C5
 The difference, between us, is negative one
 C5G#5C5
 The math is simple    subtract attractive opposites              

When Todd Sings "The Math Is Simple" A Small Riff Is Played
And Goes Something Like This: (Let The 8th Fret Ring On The B String!)

E---------8-----    Then The Second Time The G#5----------| Chord Is Played,
B-------8-------    So------------------------------------|                 The Riff Is Played As
G---------------                   E---------8-8----------|
D-----6---------                   B------8---------------|
A---------------                   G-------------------7--|
E--------------                    D---6------------------|


Then In The Pre Chorus, The F5 Chord Comes Into Place:

 F5
 Kingpin Crumbles, bye, bye, bye, BYE!

Then The Chorus, Played By The Ryhthm Guitar Is As So:

 G#5D#5A#5
E------------------------------------------------------|
B------------------------------------------------------|
G--------------8-8-8-8---------------------------------|
D-6-6-6-6----8-8-8-8---------8-8-8-8-8-8-8-8-----------|
A-6-6-6-6--- 6-6-6-6---------8-8-8-8-8-8-8-8-----------|
E-4-4-4-4--------------------- 6-6-6-6-6-6-6-6---------|


The Lead Guitar Will Play This Little Riff On The A#5 Chord:

E-----------------------------------|
B--4-3 --4-3--4-3--4-3--------------|
G-----------------------------------|
D-----------------------------------|
A-----------------------------------|
E-----------------------------------|


After Playing The Chorus, It Goes Back To The Second Verse.
It Is The Same As The First Verse.

Then Repeat The Chorus Again.

The Third Verse Is Played With A Solo.
Todd Plays A Small Riff Through Out The Solo, But Have Not Learned It Yet.
The Solo Is As Follows:

E-------------------------------------13-12------------13-12----15---------------|
B----- -6-5--------6-5--8--13-11-----------13-11---------------------------------|
G-5-3--------5-3-----------------------------------------------------------------|
D--5-3--------5-3----------------------------------------------------------------|
A--------------------------------------------------------------------------------|
E--------------------------------------------------------------------------------|


The Outro Is Played With Power Chords Once Again. They Are As Follows:

E--------------------------------------------------------------------------|
B--------------------------------------------------------------------------|
G--5-5-5-5-5-5----7-7-7-7-7-7----------------------------------------------|
D--5-5-5-5-5-5----7-7-7-7-7-7---- 6-6-6-6-6-6------------------------------|
A--3-3-3-3-3-3----5-5-5-5-5-5-----6-6-6-6-6-6------------------------------|
E---------------------------------------4-4-4-4-4-4------------------------|


Then Repeat The First Verse A Few Times, But Like This:
 C5D5D#5G#5
E-----------------------------------------------------------------------|
B-----------------------------------------------------------------------|
G--5-5-5-5-5-5---7-7-7-7-7-7---8-8-8-8-8-8------------------------------|
D--5-5-5-5-5-5---7-7-7-7-7-7---8-8-8-8-8-8------------------------------|
A--3-3-3-3-3-3---5-5-5-5-5-5---6-6-6-6-6-6---4--------------------------|
E-----------------------------------------------------4-----------------|				



A#5 C5 D#5 D5 F5 G#5
variations - click chord images
Transpose chords:
Tuning:
Cool service:
View: Size:
A  A  A
Rating:
Layout:
  • Currently 3.5/5 Stars.
  • 1
  • 2
  • 3
  • 4
  • 5
 
Accuracy:
  • Currently 3/5 Stars.
  • 1
  • 2
  • 3
  • 4
  • 5
 
click stars to rate
Chordie recommends:
Learn how to play guitar at JamPlay.com
Songbook:
Login to add this song to your songbook
Support the artist
Preview/buy this song
MSN Music
Why this non-profit ad?

 
login to add comments/video/corrections