"yes"; ?> Remote Control by Age Of Electric - guitar chords, guitar tabs and lyrics - chordie

Remote Control

Age Of Electric

------------------------------------

A ------------------------------------------------------

E ------------------------------------------------------

E ------------------------------------------------------ 

B ------------------------------------------------------

G --5---5---5---5---5---5---5---5---3---5---3----------- X4

D --5---5---5---5---5---5---5---5---3---5---3-----------

A --3---3---3---3---3---3---3---3---3---3---3-----------

E ------------------------------------------------------


 CbCb
 The difference between us
 CbCbG#
 Is negative one, The math is simple
 CbCb
Subtract attractive opposites 
 CbCbCbCb
 Open, my bottle, fizzing you shake me out
 G#
And go implode, this hollow-body interior
 F
 Kingpin crumbles
 F
 Fade, fade, fade, fade
 G#D#A#G#D#A#
                 Where's my remote control 
 G#D#A#
Where's my remote control 
 G#D#A#
Where's my remote  
 G#D#A#
Where's my   
 G#D#Cb
Where's my remote  
Cb Cb Cb THIS LINE WITH FILL #1
 CbCbCbCb
 Crooked, mangled, melted, spoil 
 G#CbCb
It's funny but true, oh looked what I cooked up 
 CbCbCbCb
 Boring, missed out, habitual umbilical 
 G#CbCb
You say "Gravity pope, you're strange and real"
 F
 It's not easy sleeping
 FA#
 It's not too late, too late, too late 
 G#D#A#G#D#A#
                         Where's my remote control
 G#D#A#
Where's my remote control 
 G#D#A#
Where's my   
 G#D#A#
Where's my   
 G#D#A#
Where's my self control 
Solo while playing Cb sequence over about 4-5 times, part of solo is fill #2
 G#D#A#G#D#A#
                         Where's my remote control 
 G#D#A#G#D#A#
                              Where's my remote control 
 G#D#A#CbCbCbCbA#
                                     The difference  between us is negative one
Fill #1
E ------------------------------------
B --------6----5----------6-----5/8---
G --3h5-------------3h5---------------
D ------------------------------------
A ------------------------------------
E ------------------------------------

fill #2
E ------------------------------------
B --------6----5----------6-----5/8---
G --3h5-------------3h5---------------
D ------------------------------------
A ------------------------------------
E ------------------------------------
E ------------------------------------------
B --------18----17---------- 18-----17/20---
G --15h17-------------15h17-----------------
D ------------------------------------------
A ------------------------------------------
E ------------------------------------------				



A# Cb D# F G#
variations - click chord images
Transpose chords:
Tuning:
Cool service:
View: Size:
A  A  A
Rating:
Layout:
  • Currently 3.4/5 Stars.
  • 1
  • 2
  • 3
  • 4
  • 5
 
Accuracy:
  • Currently 2.7/5 Stars.
  • 1
  • 2
  • 3
  • 4
  • 5
 
click stars to rate
Chordie recommends:
Learn how to play guitar at JamPlay.com
Songbook:
Login to add this song to your songbook
Support the artist
Preview/buy this song
MSN Music
Why this non-profit ad?

 
login to add comments/video/corrections