Guitar Tabs, Chords and Lyrics


Amor De Verano  Airbag

E------------------------------|


B---------7-----7-----7--------|


G-------9---9-----9-----9------|   (X3)

D-----9-------9-----9-----9----|
A---7--------------------------|
E------------------------------| SI TOKAN CON ELECTRIKA AGANLO ASI
E------------------------------ / TOKEN MEDIO TONO MAS ABAJO- /
B----------6-----6-----6------- ------------------------------------- /
G--------7---7-----7-----7----- --------------------------------------- /
D------7-------7-----7-----7------------------------------------------- /
A----5----------------------------------------------------------------- /
E---------------------------------------------------------------------- /
E------------------------------|
B---------0-----0-----0--------|
G-------2---2-----2-----2------|
D-----1-------1-----1-----1----|
A---0--------------------------|
E------------------------------|
[E]Todo empezó una noche de calor
[Cm#]se enamoraron con algún licor
[A]y desde entonces no pudo parar
[B]sabía que eso no tenía final.
[E]Y de repente todo se derrumbó
[Cm#]Billy buscaba solo un poco de acción
[A]el no la amaba ella lo hacia por él
[B]ya no quiero tenerte lo tienes que entender.
ESTRIBILLO:

[E]Si solo eso[Cm#] fue (bachuuuuuuu)
[A]un a[B]mor de verano
[E]Si solo eso[Cm#] fue (bachuuuuuuu)
[A]un a[B]mor en vano.

C#-B-C#-C#-B/C#-A-D  (ESCUCHEN BIEN PARA Q SAKEN BIEN EL RITMO)



[E]Ya no me sigas no lo quiero intentar
[Cm#]ya tus palabras no me sirven más
[A]mi nombre es Billy y yo no quiero saber
[B]de tus romances lo tenés que entender.
[E]Y de repente todo se derrumbó
[Cm#]Billy buscaba solo un poco de acción
[A]el no la amaba ella lo hacia por él
[B]ya no te quiero lo tenés que entender.
ESTRIBILLO:

[E]Si solo eso[Cm#] fue (bachuuuuuuu)
[A]un a[B]mor de verano
[E]Si solo eso[Cm#] fue (bachuuuuuuu)
[A]un a[B]mor en vano.

SOLO (2:42)

E|---------------------------------------------------------------------|
B|--13^-12~~~---14-12-------------12--------13/15--12-14-12------------|
G|--------------------14-13-14-13----14--13-----------------14--12--14-|
D|---------------------------------------------------------------------|
A|---------------------------------------------------------------------|
E|---------------------------------------------------------------------|
E--------------------|
B--12-14-12-14/19----|
G--------------------|
D--------------------|
A--------------------|
E--------------------|
E|-------------------------12~~~~~------------11-12~~~~~~----------------|
B|-------------------12-14--------------12-14----------------------------|
G|----------11-13-14--------------13-14----------------------------------|
D|-11-13-14--------------------------------------------------------------|
A|-----------------------------------------------------------------------|
E|-----------------------------------------------------------------------|
E|--11^-11-9------------------9-12-9-------------------------------------|
B|-----------12-12-9---9---9---------12-9--------------------------------|
G|-------------------9--------------------12-11-9----9~~~~~~~~~----------|
D|------------------------------------------------11---------------------|
A|-----------------------------------------------------------------------|
E|-----------------------------------------------------------------------|


[E]Lo sabes bien esto se terminó
[Cm#]no queda nada nada entre tu y yo
[A]solo una noche yo te quise dar
[B]no tengo nada nada nada para entregar

ESTRIBILLO:

[E]Si solo eso[Cm#] fue (bachuuuuuuu)
[A]un a[B]mor de verano
[E]Si solo eso[Cm#] fue (bachuuuuuuu)
[A]un a[B]mor en vano.

[F#]Si solo eso fu[Dm#]e (bachuuuuuuu)
[B]un a[C#]mor de verano
[F#]Si solo eso fu[Dm#]e (bachuuuuuuuu)
[B]un a[C#]mor en vano.

Important: The song above is NOT stored on the Chordie server. The original song is hosted at www.guitaretab.com. Chordie works as a search engine and provides on-the-fly formatting. Chordie does not index songs against artists'/composers' will. To remove this song please click here.

Text color:
Chord color:
Chord grids: 
Font size:    
Page size: 

A B C# E F#
variations - click chord images

Login - add to songbook

Transpose chords

Tuning

Rating click stars to rate

Layout
Accuracy

SHARE PAGE  




You need to log in to post comments