Guitar Tabs, Chords and Lyrics


Nababaliw Na Ang Payaso  Aizo

e|-----------------------|


B|-----------------------|


G|-----------------------| 4x

D|---9-------7/9-8-7-----|
A|-7---10-10---------10--|
E|-----------------------|
e|------------------------|
B|------------------------|
G|------------------------| paulit-ulit lang...
D|---9-------7/9-8-7------|
A|-7---10-10---------10---|
E|------------------------|
Nawa[C]la na ang kinang at [B]ang kasiyahan
ang ngi[Am]ti sa mukha ay [G]nakalimutan
C B Am G-G(pause)
Nagunaw na lahat sa kanyang mundo, kaya ngayon ay..

..nababaliw na ang payaso

e|-----------------------|
B|-----------------------|
G|-----------------------| 2x
D|---9-------7/9-8-7-----|
A|-7---10-10---------10--|
E|-----------------------|



VERSE 2:

e|-----------------------------------|
B|-----------------------------------|
G|-----------------------------------| paulit-ulit lang din...
D|--------------5--------9-----8-----|
A|-----7----3-3---3--7-7---6-6---6---|
E|-5-5---5---------------------------|



CHORUS:
Na[C]wala na ang kinang a[B]t ang kasiyahan
ang ngi[Am]ti sa mukha ay [G]nakalimutan
C B Am G-G(pause)
Nagunaw na lahat sa kanyang mundo, kaya ngayon ay..

..nababaliw na ang payaso

e|-----------------------|
B|-----------------------|
G|-----------------------| 4x
D|---9-------7/9-8-7-----|
A|-7---10-10---------10--|
E|-----------------------|



ADLIB:

e|--------------------------------------------------------|
B|--------------------------------------------------------|
G|---------------------9-8-7------------------------------|
D|--------------7-10-7-------10-7----7-10-7----7-10-7-10--|
A|-------7-6-5--------------------10--------10------------|
E|-5-8-5--------------------------------------------------|
e|------------------------------------|
B|------------------------------------|
G|---------------------9-8-7----------|
D|--------------7-10-7-------7-10-7~--|
A|-------7-6-5------------------------|
E|-5-8-5------------------------------|



BRIDGE:

Palagi mo na lang sinasalo ang lahat ng aking ibinabato
Pag-harap ko sa salamin andun ang payaso't naka-tingin sa akin


VERSE 3:

e|-----------------------|
B|-----------------------|
G|-----------------------| 4x
D|---9-------7/9-8-7-----|
A|-7---10-10---------10--|
E|-----------------------|
e|----------------------------------|
B|----------------------------------|
G|----------------------------------| 4x
D|--------------5--------9-----8----|
A|-----7----3-3---3--7-7---6-6---6--|
E|-5-5---5--------------------------|



CHORUS:
Nawa[C]la na ang kinang at [B]ang kasiyahan
ang ngi[Am]ti ay napawi [G]ng kalungkutan
C B Am G-G(pause)
Ako ang payaso; ang payaso ay ako, pero di ko alam..

..nababaliw na ang payaso....

e|-----------------------|
B|-----------------------|
G|-----------------------| 4x
D|---9-------7/9-8-7-----|
A|-7---10-10---------10--|
E|-----------------------|



OUTRO:

e|----------------------------------|
B|----------------------------------|
G|----------------------------------| 4x
D|--------------5--------9-----8----|
A|-----7----3-3---3--7-7---6-6---6--|
E|-5-5---5--------------------------|



LYRICS:

Intro:

Sinabi mo noon, hindi na babalik ang kahapon
ngunit bakit ngayon nandirito pa rin?

Verse 1:

Sinabi niya sa akin sagabal lang ang damdamin
ang nagmamahal ay mahina rin

Sagot ba ang kamatayan sa lahat ng katanungan
ang paningin niya ngayo'y dumidilim

Ang diyos mo'y makasalanan, sasambitin pa ba ang kanyang ngalan
paniniwala niya'y nawala na rin

Kung dati ang problema'y saglit lamang, ngayon ito'y mahirap kalimutan
ang pag-iisip niya'y naging malabo na rin

Chorus:

Nawala na ang kinang at ang kasiyahan
ang ngiti sa mukha ay nakalimutan
Nagunaw na lahat sa kanyang mundo, kaya ngayon ay..
..nababaliw na ang payaso

Verse 2:

Ang mundo niya ay sa teatro, ang buhay niya ay isang entablado
ang buhay ng payaso ay tao pa rin

Sa kaliwa ang hawak niya'y baraha, sa kanan tangan niya'y gitara
nag-iisip kung ano ang uunahin niya

Noo'y nagpapatawa ang payaso, walang paki-alam kahit ma-gago
pero bakit naging sensitibo na rin

Wala man bahid ng kalungkutan, pero huwad naman ang kasiyahan
siya'y punung-puno ng tuwa't ligalig

Chorus:

Nawala na ang kinang at ang kasiyahan
ang ngiti sa mukha ay nakalimutan
Nagunaw na lahat sa kanyang mundo, kaya ngayon ay..
..nababaliw na ang payaso

Adlib:

La la la la....

Bridge:

Palagi niya na lang sinasalo ang lahat ng aking ibinabato
Pag-harap ko sa salamin andun ang payaso't naka-tingin sa akin

Verse 3:

Ano na ba ang kahahantungan ng payasong anonimo na sa lipunan?
Hindi na maibabalik pa ang kahapon; ang payaso noon ay hindi na ngayon

Wala na siyang pakiramdam, wala na siyang paki-alam
wala na siyang tatakbuhan, poot at galit lang nararamdaman

Chorus:

Nawala na ang kinang at ang kasiyahan
ang ngiti ay napawi ng kalungkutan
Ako ang payaso; ang payaso ay ako, pero di ko alam..
..nababaliw na ang payaso....

Outro:

Nababaliw.... nababaliw na ang payaso

NITRAM
10-16-08
10:13 PM

Important: The song above is NOT stored on the Chordie server. The original song is hosted at www.guitaretab.com. Chordie works as a search engine and provides on-the-fly formatting. Chordie does not index songs against artists'/composers' will. To remove this song please click here.

Text color:
Chord color:
Chord grids: 
Font size:    
Page size: 

Am B C G
variations - click chord images

Login - add to songbook

Transpose chords

Tuning

Rating click stars to rate

Layout
Accuracy

SHARE PAGE  




You need to log in to post comments