Guitar Tabs, Chords and Lyrics


She Was Mine   Aj Rafael



well basically this is the whole song....i finger-pick the chords so yeah.....just 
throughout the song :) lols

i've also added x's just in case you wanna tap XD

and make sure you single strum on the part where it goes... "So im looking through these boxes...."

have fun ;D


She was mine - Aj Rafael ft. Jesse Barrera


VERSE: x = tap


e|-----------------x-------------x-------------x----------------------|
B|------10-----10--x---------8---x---6-----6---x----------------------|
G|------9------9---x---8-----8---x---7-----7---x---6-----6------------|
D|------10-----10--x---8-----7---x---7-----7---x---6-----6------------|
A|------8------8---x---------8---x-------------x----------------------|
E|-----------------x---8---------x---6-----6---x---6-----6------------|


CHORUS:

e|----------------x-------------x-------------x-----------------------|
B|----------------x---3-----3---x-------------x---5-----5-------------|
G|------3-----3---x---3-----3---x---5-----5---x---5-----5-------------|
D|------3-----3---x---2-----2---x---5-----5---x---4-----4-------------|
A|----------------x---3-----3---x-------------x---5-----5-------------|
E|------3-----3---x-------------x---5-----5---x-----------------------|

Lyrics

So I hopped on a train,
3 in the afternoon
I don't know when I'm coming back,
but i hope that its soon
See I never thought (never thought)
that I'd have to leave your side (your side)
Its only physically,
but i know that you'll be on my mind, 24 hours at a time
Cause in my eyes,
you were mine (you were mine)

CHORUS:
No matter where you go,
I wont be very far
Cause in my head I'll be right there
where you are
Cause love has no distance baby
Love, love has no distance baby
No, not when it come to you and me

See she wrote me a letter
Said the weather wasn't better
But she said that she was doing fine
I wanna see you face to face
That's what she wrote to me that day
And i knew that it was all a sign
So I wrote back with this song
Promised to won't be too long
Wanna make up for all our lost time
Cause in my eyes,
you were mine (you were mine)

*CHORUS*

So I'm going through these boxes,
My life's gone off track
Cause its been three years
And she hasn't written back
But in my eyes, She's still mine
And I know it sounds so stupid
To be waiting this long
But I'm still in love and
I know I'm not wrong
Cause in my eyes, She's still mine

*CHORUS*

the end ^_^



Important: The song above is NOT stored on the Chordie server. The original song is hosted at www.guitaretab.com. Chordie works as a search engine and provides on-the-fly formatting. Chordie does not index songs against artists/composers will. To remove this song please click here.

This song is displayed as text-only. Transposing and tuning is only available for chordpro-songs.

Login - add to songbook

Rating click stars to rate

Layout
Accuracy

SHARE PAGE  




You need to log in to post comments