Guitar Tabs, Chords and Lyrics


Kamisama No Shitauchi  Akeboshi

  [Bm]          [A]        [D]          [A]        [Bm]          [A]        [C]          [F#m]    [Bm]                 
E---2-----2---0-------2-----2---0-------2-----2---0-------3---0-2---------------|
B-------3---------2-3-----3---------2-0-----3---------2-1---0-------3--3--------|
G-4---4-----2---2-------2-----2---2-------4-----2---2--------------------4------|Riff'A'
D-----------------------------------------------------------------4---4---------|
A-------------------------------------------------------------------------------|
E-------------------------------------------------------------------------------|
[Bm] [-] [A] [-] [D] [-] [A] [-] [Bm] [-] [A] [-] [C] [-] [F#m], with the next arpeggio's pattern:


Bm A D c Fm
E----------------X----------X------------X-------------|
B-------X--------X--------X---X--------X---X-------X---|
G-----X---X------X------X------------X-------------X---|
D---X------------X----X----------------------------X---|
A-X------------X-------------------X-------------------|
E-------------------------------------------------X----|



The sunlight burnt the air around my window pane,
In broken dreams I feel the fear of night again
I'm lost without a place, without home or womb,
It's empty objects now that hold me in this room,

(Riff 'A')

She said she read my eyes and danced me to the floor,
But in her shadow stood the devil at the door,
The smile that hid her life was thin and strainging fast,
Her carefree movements masked the truths whitin her past

Just close your eyes and see what you can see
Just close your eyes and see what you can see


The sunlight burnt the air around my window pane,
In broken dreams I feel the fear of night again
And God he clicks his tongue in a moment of silence
This tearless story unfolds while her tears roll down

Just close your eyes and see what you can see
Just close your eyes and see what you see
Just close your eyes and see what you see
Just close your eyes and see what you can be

1º 2º
____________________ ___________________
/ \ / \
E||----------------------|---2h3p2-------------|----------------------||
B||----2h3p2-------------|---------3-----------|---0h1p0--------------||
G||·---------4---0-4p2---|-----------2---4p2---|---------0---0-3-----·||
D||·-----------4-------2-|-0-----------0-----2-|-----------2-----4---·||
A||--2-------------0-----|---------------0-----|-3-----------------4--||
E||----------------------|---------------------|---------------2------||



                                                                           [Bm]           
E||----------------------|---2h3p2-------------|----------------------------2-|
B||----2h3p2-------------|---------3-----------|---0h1p0-------------2------3-|
G||·---------4---0-4p2---|-----------2---4p2---|---------0---0-----3---3----4-|
D||·-----------4-------2-|-0-----------0-----2-|-----------2-----4-------4--4-|
A||--2-------------0-----|---------------0-----|-3--------------------------2-|
E||----------------------|---------------------|---------------2--------------|

I hope this is usefull to you. Contact: cristirjs@yahoo.com.ar

Important: The song above is NOT stored on the Chordie server. The original song is hosted at www.guitaretab.com. Chordie works as a search engine and provides on-the-fly formatting. Chordie does not index songs against artists'/composers' will. To remove this song please click here.

Text color:
Chord color:
Chord grids: 
Font size:    
Page size: 

A Bm C D F#m
variations - click chord images

Login - add to songbook

Transpose chords

Tuning

Rating click stars to rate

Layout
Accuracy

SHARE PAGE  




You need to log in to post comments