Guitar Tabs, Chords and Lyrics


The Fireflys Song  Alan Jackson

|2-------0-----|


|-3---2--------|


|--2----2---2-2|

|--------------|
|-----0---0--0-|
|--------------|
|2-----0------------2-----0-----------------------|
|-3--2------3---2--3-3--2------3---2-2---0--------|
|--2------4-----2-2---2------4-----2-2-1---1---2--|
|-------2-----2------------2-----2-----------2----|
|-------------------------------------------------|
|-------------------------------------------------|
|-----1p0-------|
|---------------|
|-4p2-----------|
|----------3----|
|---------------|
|---------------|
I[A] used to run in a young man's boots
With a [E]young man's heart
And a young man's roots

F#m Bm(with a hammer-on on b string)
But now I stand where a young man stood before
I don't run like I u[A]sed to
This old m[E]an don't run no m[A]ore


Chorus:

[F#m]Hey h[E]idee ho
[G#m]I used to go [F#m]where the devil[E] wouldn't go
Where the [D]river run still
And the [A]water don't flow

[Dmaj]Heaven couldn't s[F#m]top me then
Hey [E]Hidee hi
[G#m]Good lord willin
[F#m]And the creek don't r[E]ise
And [D]life goes by
Like the [A]fireflies
Where the [E]devil sits with a [A]grin
Well those are all the peices. Listen to the song to see how they all fit together.
Let me know if you enjoyed this tab (its my first one) or if you think I made an error
left out something.
Enjoy!

Troy

Important: The song above is NOT stored on the Chordie server. The original song is hosted at www.guitaretab.com. Chordie works as a search engine and provides on-the-fly formatting. Chordie does not index songs against artists'/composers' will. To remove this song please click here.

Text color:
Chord color:
Chord grids: 
Font size:    
Page size: 

A D Dmaj E F#m G#m
variations - click chord images

Login - add to songbook

Transpose chords

Tuning

Rating click stars to rate

Layout
Accuracy

SHARE PAGE  




You need to log in to post comments