Guitar Tabs, Chords and Lyrics


Turn Your Eyes Upon Jesus  Alan Jackson

----------------------------------------------------------------------------



----------------------------------------------------------------------------

O [C]soul are you [G]weary and [Am]trou[C]bled?
No [F]light in the [Dm]darkness you [C]see? [G]
There's [C]light for a [C7]look at the [F]Sav[Fm]iour,
And [C]life more [G]abundant and [C]free
(Chorus)
[C]Turn you [G]eyes upon [Am]Je-[C]sus,
Look [F]full in His [Dm]wonderful [G7]face;
And the [C]things of [C7]earth will grow [F]strangely [Fm]dim
In the [C]light of His [G]glory and [C]grace.


[C]Through death into [G]life everl[Am]as-[C]ting
He [F]passed, and we [Dm]follow Him [C]there [G]
Over [C]us sin [C7]no more hath [F]domin[Fm]ion
For [C]more than [G]conqu'rors we [C]are
(Repeat Chorus)


[C]His word shall not [G]fail you He [Am]pro[C]mised
Be[F]lieve Him and [Dm]all will be [C]well. [G]
Then [C]go to a [C7]world that is [F]dy[Fm]ing,
His [C]perfect [G]salvation to [C]tell
(Repeat Chorus)


    [C]      [C7]      [G]      [G7]      [Am]      [F]      [Fm]      [Dm]                                     
e|--0--|--0--|--3--|--1--|--0--|--1--|--1--|--1--||
B|--1--|--1--|--0--|--0--|--1--|--1--|--1--|--3--||
G|--0--|--3--|--0--|--0--|--2--|--2--|--1--|--2--||
D|--2--|--2--|--0--|--0--|--2--|--3--|--3--|--3--||
A|--3--|--3--|--2--|--2--|--0--|--3--|--3--|-----||
E|-----|-----|--3--|--3--|-----|--1--|--1--|-----||

Important: The song above is NOT stored on the Chordie server. The original song is hosted at www.guitaretab.com. Chordie works as a search engine and provides on-the-fly formatting. Chordie does not index songs against artists'/composers' will. To remove this song please click here.

Text color:
Chord color:
Chord grids: 
Font size:    
Page size: 

Am C C7 Dm F Fm G G7
variations - click chord images

Login - add to songbook

Transpose chords

Tuning

Rating click stars to rate

Layout
Accuracy

SHARE PAGE  




You need to log in to post comments