In The Garden

Alan Jackson

----------------------------------------------------------------------------

----------------------------------------------------------------------------

 D
 I come to the garden alone
 GD
While the dew is still on the roses
A Bm A* D
And the voice I hear, falling on my ear
 EA
The Son of God discloses

Chorus:
 D
And He walks with me
 A
And He talks with me
 EmA
And He tells me I am His own
 DD7GG7
And the joy we share as we tarry there
 DAD
None other has ever known

 D
 He speaks and the sound of His voice
 GD
Is so sweet the birds hush their singing
A Bm A* D
And the melody that He gave to me
 EA
Within my heart is ringing

(Repeat Chorus)

 D
 I'd stay in the garden with Him
 GD
Though the night around me be falling
A Bm A* D
But He bids me go through the voice of woe
 EA
His voice to me is calling

(Repeat Chorus)

D D7 G G7 A Bm A* E Em
e|--2--|--2--|--3--|--1--|--0--|--2--|--0--|--0--|--0--||
B|--3--|--1--|--0--|--0--|--2--|--3--|--2--|--0--|--0--||
G|--2--|--2--|--0--|--0--|--2--|--4--|--2--|--1--|--0--||
D|--0--|--0--|--0--|--0--|--2--|--4--|--2--|--2--|--2--||
A|-----|-----|--2--|--2--|--0--|--2--|--4--|--2--|--2--||
E|-----|-----|--3--|--3--|-----|-----|-----|--0--|--0--||				



A D D7 E Em G G7
variations - click chord images
Transpose chords:
Tuning:
Cool service:
View: Size:
A  A  A
Rating:
Layout:
  • Currently 2.8/5 Stars.
  • 1
  • 2
  • 3
  • 4
  • 5
 
Accuracy:
  • Currently 3.2/5 Stars.
  • 1
  • 2
  • 3
  • 4
  • 5
 
click stars to rate
Chordie recommends:
Learn how to play guitar at JamPlay.com
Songbook:
Login to add this song to your songbook
Support the artist
Preview/buy this song
MSN Music
Why this non-profit ad?

 
login to add comments/video/corrections