Chordie logo


The Angels Cried  Alan Jackson

e--------2--------------0-------------------0-|


B------3---3----------1-----------0-------2---|


G----2--------------0-----------0-------2-----|

D--0--------------2-----------0-------2-------|
A---------------3-----------2-------0---------|
E-------------------------3-------------------|
e--------2h3p2----------0-------------------0-|
B------3--------------1-----------0-------2---|
G----2--------------0-----------0-------2-----|
D--0--------------2-----------0-------2-------|
A---------------3-----------2-------0---------|
E-------------------------3-------------------|
The[D]y came from near,[A] they came from far,
Follo[Bm]wing a di[A]stant star to wh[G]ere He lay.
Not[D] being sure of what it [A]meant, but
Kno[Bm]wing it was Heaven s[A]ent,
They[G] made thier way.
Chorus:
And the[Em] creatures gathered 'round
And[G] didn't make a sound,
And the [D]Ange[C]ls [G]cried.

Verse 2:
[D]The Angels knew[A] what was to come,
[Bm]The reason God [A]had sent His Son [G]from up above.
I[D]t filled their [A]hearts with joy to see, and
[Bm]Knowing of His [A]destiny,
Came [G]tears of love.

Chorus:
Intro:

Verse 3:
[D]I've often thought [A]about that night,
[Bm]And wondered if [A]they realized that [G]star so bright.
[D]Was sent to tell [A]all the land,
[Bm]The Son of God would [A]soon become
The [G]Son of man.

Chorus:
And the [D]Ange[C]ls [G]cried

Important: The song above is NOT stored on the Chordie server. The original song is hosted at www.guitaretab.com. Chordie works as a search engine and provides on-the-fly formatting. Chordie does not index songs against artists/composers will. To remove this song please click here.

Text color:
Chord color:
Chord grids: 
Font size:    
Page size: 

A Bm C D Em G
variations - click chord images

Login - add to songbook

Transpose chords

Tuning

Rating click stars to rate

Layout
Accuracy

SHARE PAGE  




You need to log in to post comments