Chordie logo


Turn Of A Friendly Card   Alan Parsons Project



------------------------------------------------------------------
      TURN OF A FRIENDLY CARD (SOLO) - Alan Parsons Project
------------------------------------------------------------------

Tabbed by: Thijs
Email: baggertroepzooi@hotmail.com

Tuning: EADGBe

Great song by Alan Parsons Project. I was surprised nobody'd tabbed
this solo yet.

Solo starts after vocal part at about 1:15
Song is tabbed on acoustic guitar so you might not need all of the
slides(/), hammer-on's(h) and pull-off's(p), although I think 
they're quite accurate.

e|----------------------------------------------------------------|
B|----------------------------------------------------------------|
G|-7/9-10-9h10p9/7-----------7----------------7------7------7-----|  
D|------------------10--7-10---10p8-7-------7---7-7----7-7--------|  x2
A|-------------------------------------8h10-----------------------|
E|----------------------------------------------------------------|

e|------------------------10--10-9-10-12-12-10-12-13/-------------|
B|---------8-8-/8----8h10-----------------------------------------|
G|-10-9-10--------10----------------------------------------------|
D|----------------------------------------------------------------|
A|----------------------------------------------------------------|
E|----------------------------------------------------------------|

e|----10-12-13-10h12p10 10-------8 10-11-8h10p8-8-----------------|
B|-10----------------------13--8------------------11--------------|
G|----------------------------------------------------------------|
D|----------------------------------------------------------------|
A|----------------------------------------------------------------|
E|----------------------------------------------------------------|

e|---------10------12---10-10-------------------------------------|
B|-10p8p10----10-8----8-------------------------------------------|
G|----------------------------------------------------------------|
D|----------------------------------------------------------------|
A|----------------------------------------------------------------|
E|----------------------------------------------------------------|

Comments and additions are welcome, it's my first tab you see :D
Enjoy playing!


Important: The song above is NOT stored on the Chordie server. The original song is hosted at www.guitaretab.com. Chordie works as a search engine and provides on-the-fly formatting. Chordie does not index songs against artists/composers will. To remove this song please click here.

This song is displayed as text-only. Transposing and tuning is only available for chordpro-songs.

Login - add to songbook

Rating click stars to rate

Layout
Accuracy

SHARE PAGE  




You need to log in to post comments