Guitar Tabs, Chords and Lyrics


Miss Myrtle   Albert Hammond Jr



-------------------------------------------------------------------------------
			     Miss Myrtle - Albert Hammond Jr.
-------------------------------------------------------------------------------
Tabbed by: Nasser O

Tuning: Standard

The song is composed primarily of 2 parts with a couple of fills here and there 
this is the whole song.
Listen to the song for strumming pattern as well as any chord changes.

Part 1
e|-------------------------------------------------------------------------------------|
B|-12--10----10-----------10----12--10----10----10----10----12--10----12--10----10-----|
G|--------11----11--9--11--------------11----11----11--------------11--------11----11--|
D|-------------------------------------------------------------------------------------|
A|-------------------------------------------------------------------------------------|
E|-------------------------------------------------------------------------------------|
(contd.)
e|-----------------------------------|
B|--12--10----12/14--12--10--12--10--|
G|---------11------------------------|
D|-----------------------------------|
A|-----------------------------------|
E|-----------------------------------|x2

Part 2
e|-------------|
B|---10----10--|
G|----9----11--|
D|---11----12--|
A|-------------|
E|-------------|

Part 2a  (When guitar is distorted)
e|----9----10--|
B|---10----10--|
G|----9----11--|
D|---11----12--|
A|-------------|
E|-------------|

| \  slide down



Important: The song above is NOT stored on the Chordie server. The original song is hosted at www.guitaretab.com. Chordie works as a search engine and provides on-the-fly formatting. Chordie does not index songs against artists/composers will. To remove this song please click here.

This song is displayed as text-only. Transposing and tuning is only available for chordpro-songs.

Login - add to songbook

Rating click stars to rate

Layout
Accuracy

SHARE PAGE  




You need to log in to post comments