Guitar Tabs, Chords and Lyrics


Bright Young Thing   Albert Hammond Jr



By: Akonite

Intro
e|-9-----10-------|
B|---9-7----10-9--|
G|----------------|
D|----------------|
A|----------------|
E|----------------|x2

Verse
Guitar 1
e|---5--5--5---5--5--5--|
B|--5--5------7--7------|
G|-6--6--6---7--7--7----|
D|----------------------|
A|----------------------|
E|----------------------|x4

Guitar 2
e|---------------|
B|---9-7---10-9--|
G|-6-----7-------|
D|---------------|
A|---------------|
E|---------------|x4

Guitar 1
e|-55555555-55555555--|
B|-55555555-77777777--|
G|-66666666-77777777--|
D|-77777777-77777777--|
A|-77777777-55555555--|
E|-55555555-55555555--|

e|-55555555-55555555-55555555-55555555|
B|-55555555-77777777-77777777-77777777|
G|-66666666-77777777-77777777-77777777|
D|-77777777-77777777-77777777-77777777|
A|-77777777-55555555-55555555-55555555|
E|-55555555-55555555-55555555-55555555|

e|-77777777----------77777777|
B|-99999999----------99999999|
G|-99999999----------99999999|
D|-99999999----------99999999|
A|-77777777----------77777777|
E|-77777777----------77777777|

Guitar 2
e|---------------|
B|---9-7---10-9--|
G|-6-----7-------|
D|---------------|
A|---------------|
E|---------------|

e|-------------------------------------------------|
B|---9-7---10-9---10-9---10-9---10-9---10-9---10-9-|
G|-6-----7------7------7------7------7------7------|
D|-------------------------------------------------|
A|-------------------------------------------------|
E|-------------------------------------------------|

Chorus
Guitar 1
e|--5-4-5-4-5-4-5-5-|
B|-7-7-7-7-7-7-7-7--|
G|------------------|
D|------------------|
A|------------------|
E|------------------|x5

Guitar 2(starts after the second time guitar 1 plays)
e|--9-7-9-7-9-7-9-9-|
B|-7-7-7-7-7-7-7-7--|
G|------------------|
D|------------------|
A|------------------|
E|------------------|x3

Verse
Guitar 1
e|-55555555-55555555--|
B|-55555555-77777777--|
G|-66666666-77777777--|
D|-77777777-77777777--|
A|-77777777-55555555--|
E|-55555555-55555555--|x3

e|-55555555-55555555-55555555-55555555|
B|-55555555-77777777-77777777-77777777|
G|-66666666-77777777-77777777-77777777|
D|-77777777-77777777-77777777-77777777|
A|-77777777-55555555-55555555-55555555|
E|-55555555-55555555-55555555-55555555|

e|-77777777----------77777777|
B|-99999999----------99999999|
G|-99999999----------99999999|
D|-99999999----------99999999|
A|-77777777----------77777777|
E|-77777777----------77777777|

Guitar 2
e|---------------|
B|---9-7---10-9--|
G|-6-----7-------|
D|---------------|
A|---------------|
E|---------------|

e|-------------------------------------------------|
B|---9-7---10-9---10-9---10-9---10-9---10-9---10-9-|
G|-6-----7------7------7------7------7------7------|
D|-------------------------------------------------|
A|-------------------------------------------------|
E|-------------------------------------------------|

Refrain...

e|-9-----10-------|
B|---9-7----10-9--|
G|----------------|
D|----------------|
A|----------------|
E|----------------|x2

Chorus
Guitar 1
e|--5-4-5-4-5-4-5-5-|
B|-7-7-7-7-7-7-7-7--|
G|------------------|
D|------------------|
A|------------------|
E|------------------|x5

Guitar 2(starts after the second time guitar 1 plays)
e|--9-7-9-7-9-7-9-9-|
B|-7-7-7-7-7-7-7-7--|
G|------------------|
D|------------------|
A|------------------|
E|------------------|x3 Stops

Outro
e|-7-5--9-7-9-7--|
B|-5-5--7-7-7-7--|
G|-6-6--7-7-7-7--|
D|-7-7--9-9-9-9--|
A|---------------|
E|---------------| Over and over

Ng-Muk-yuen



Important: The song above is NOT stored on the Chordie server. The original song is hosted at www.guitaretab.com. Chordie works as a search engine and provides on-the-fly formatting. Chordie does not index songs against artists/composers will. To remove this song please click here.

This song is displayed as text-only. Transposing and tuning is only available for chordpro-songs.

Login - add to songbook

Rating click stars to rate

Layout
Accuracy

SHARE PAGE  




You need to log in to post comments