eToCache5 = ""; ?> No Se Me Hace Facil by Alejandro Fernandez - guitar chords, guitar tabs and lyrics - chordie

No Se Me Hace Facil

Alejandro Fernandez

 EAsus2DbmAsus2EAsus2DbmCmaj7Bsus4
 E
  Tal vez no quieras que esta melodía
 F#m7add4
Te susurre el alma y te lleve al recuerdo
 Abm#5
Tal vez auque no estemos juntos
 Aadd9Badd4
Sentirás el aire que viene por ti
 E
Quizás no quieras que la cobardía
 F#m7add4
De tu corazón no cure mi silencio
 Abm#5
Tal vez nunca te has detenido
 Aadd9Badd4
A reemplazar tu orgullo por mi amanecer
 Dbm
Tal vez soy yo el que se equivoca
 Aadd9
Cuando pienso que has cambiado
 Abm#5F#madd4
Y me provocan mis ganas de verte, mi melancolía
 Asus2
No me han avisado que esto se termina

 E
No se me hace fácil olvidar
 Dbm
Déjame besarte una vez más
 Aadd9Abm#5
Regresar de noche convertido en sueño
 F#m7add4Bsus4E
 No es tan fácil, desprenderme de tu corazón
 Dbm
No es tan simple desafiarte amor
 Aadd9
Y tenerte atada a algún motivo
 Cmaj7
Ser la sombra en tu camino

 E
  Tal vez no quieras que esta melodía
 F#m7add4
Te susurre el alma y te lleve al recuerdo
 Abm#5
Tal vez podrás cambiar mi piel
 Aadd9Badd4
Por otra que no tiene nada que decir

 Dbm
Tal vez soy yo el que se equivoca
 Aadd9
Cuando pienso que has cambiado
 Abm#5F#m7add4
Y me provocan mis ganas de verte, mi melancolía
 Asus2
No me han avisado que esto se termina

 E
No se me hace fácil olvidar
 Dbm
Déjame besarte una vez más
 Aadd9Abm#5
Regresar de noche convertido en sueño
 F#m7add4Bsus4E
 No es tan fácil, desprenderme de tu corazón
 Dbm
No es tan simple desafiarte amor
 Aadd9
Y tenerte atada a algún motivo
 DA
Ser la sombra  

 EDbm
e|---0------------------------------------------------------|
B|------9-10-10/12---10-9-10-9------------------------------|
G|--------------------------------9-11-11-9-11---9\---------|
D|----------------------------------------------------------|
A|----------------------------------------------------------|
E|----------------------------------------------------------|


 Amadd4Cmaj7Bsus4
e|----------------------------------------------------------|
B|----------------------------------8----10b-10-8-10b-------|
G|----------------------------5-7/9---9---------------------|
D|----------------5h7p5---5-7-------------------------------|
A|----0-----5h7-7-------7-----------------------------------|
E|----------------------------------------------------------|


 E
No se me hace fácil olvidar
 Dbm
Déjame besarte una vez más
 Aadd9Abm#5
Regresar de noche convertido en sueño
 F#m7add4Bsus4E
 No es tan fácil, desprenderme de tu corazón
 Dbm
No es tan simple desafiarte amor
 Aadd9
Y tenerte atada a algún motivo
 DA
Ser la sombra  
 EDbmAadd9Cmaj7
 uh uh   ah ah   ah ah   

 E
Tal vez no quieras que esta melodía
 F#m7add4
Te susurre el alma y te lleve al recuerdo
 Am7
Tal vez aunque no estemos juntos
 E
Sentirás el aire


A Aadd9 Abm#5 Am7 Amadd4 Asus2 Badd4 Bsus4 Cmaj7 D Dbm E F#m7add4 F#madd4
variations - click chord images
Transpose chords:
Tuning:
Cool service:
View: Size:
A  A  A
Rating:
Layout:
  • Currently 3.5/5 Stars.
  • 1
  • 2
  • 3
  • 4
  • 5
 
Accuracy:
  • Currently 2.3/5 Stars.
  • 1
  • 2
  • 3
  • 4
  • 5
 
click stars to rate
Chordie recommends:
Learn how to play guitar at JamPlay.com
Songbook:
Login to add this song to your songbook
Support the artist
Preview/buy this song
MSN Music
Why this non-profit ad?

 
login to add comments/video/corrections