Guitar Tabs, Chords and Lyrics


El Aprendiz  Alejandro Sanz

e----5p3-----|--------------------|


B---6---7p6h7|----5-6s8-6---------|


G--7---------|---6-------7p6------|

D-7----------|--7-----------7-----|
A5-----------|-7-------------8p7h8|
E------------|--------------------|
e----------|------------|13-12h13p12-10-|
B----------|------------|---------------|
G----------|-10-9h10p9-7|---------------|
D-8-7h8p7-5|------------|---------------|
A----------|------------|---------------|
E----------|------------|---------------|
e------------------|
B-8h10-8----8-8s10-|
G-9----9-10-9-9s10-|
D------------------|
A------------------|
E------------------|
|-----riff 1---------------------------------|
e-----5h6p5------|-13p12-13—13s15-17-17-17---|
B----6-----8p6s10|---------------------------|
G---7------------|---------------------------|
D--7-------------|---------------------------|
A-5--------------|---------------------------|
E----------------|---------------------------|
e-13-12h13p12-10---(10-10h12p10-10-10)*2-|
B----------------------------------------|
G----------------------------------------|
D----------------------------------------|
A----------------------------------------|
E----------------------------------------|
e-12-13-12h13p12-10-------------------|
B-------------------9-10—9h10p9-------|
G------------------------------11-9-7-|
D-------------------------------------|
A-------------------------------------|
E-------------------------------------|
[Dm]Tus besos saben tan a[A]margos,
c[C]uando te ens[A#]ucias los lab[Gm]ios,
con mentira[A]s, otra vez.[Dm]
(riff 2)
e-----------------------|
B-10-11-11--10--10--8-6-|
G-10-12-12-10--10--9-7--|
D-----------------------|



2. (igual a 1.)
Dices que te estoy haciendo daño,
que con el paso de los años,
me estoy haciendo mas cruel.

A.:
Y [Gm]es que yo nunca creí[A] que te vería,  [A#]
remendando [A#]mis heridas,       [A]
con [Gm]girones de tu piel[A],

e-------------|
B--10s8--6-6--|
G-10-s9-7-7---|
D-------------|


[Gm]De ti aprendió mi [A]corazón, [Dm]
[Gm]de ti aprendió mi[A] corazón,  [Dm]
[C#m7]no me reproches niña que no[Gm] sepa[A] darte amor[Gm].   [A]

CORO:
Me h[A#]as enseñado tu
tu has sido[Gm] mi maestra para[A] hacer sufrir   [Gm]
Si[A#] alguna vez[A] fui malo, lo aprendí de [Dm]ti
[D7]no digas que no entiendes como, puedo ser [Gm]asi
Si [C#m7]te estoy haciendo daño, l[Gm]o aprendí de ti[A]
Me[A#] has enseñado tu,
maldigo mi[Gm] inocencia, y[A] te maldigo a [Dm]ti,
mald[D7]ita la maestra y maldito el a[Gm]prendiz,
maldigo l[A]o que hago, y te[Gm] lo debo.[A].. a ti.[Dm]

e------------------------------|
B-10-10-8-8-6-6s5s6---|
G-10-10-9-9-7-7s6s7---|
D------------------------------|


[Dm]   [A]  [C]  [A#]   [Gm]   [A]  [Dm]                      
e----------|--------------------|
B----------|-6-6s8-8-8-10-11-10-|
G-riff 1---|-7-7s9-9-9-10-12-10-|
D----------|--------------------|
A----------|--------------------|
E----------|--------------------|
e-13-13s15-15-15s17-17-17-v17-13-15---10-|
B-----------------------------------13---|
G----------------------------------------|
D----------------------------------------|
A----------------------------------------|
E----------------------------------------|
e-10-12-13----------------------|
B---------10-10-11-10-----------|
G--------------------12-10------|
D-------------------------12-12-|
A-------------------------------|
E-------------------------------|


3.(igual a 1)
Me duelen tus caricias por que noto,
que tus manos son cristales rotos,
bajo mis pies. riff 2

4.
[Dm]Dices que te estoy ha[A]ciendo daño,
q[C]ue con el paso de los años, [A#]
me[Bb] es[-]to[A]y haciendo mas c[Dm]ruel.

B.(igual a A)
Pero es que nunca creí que te vería,
remendando mis heridas,
con girones de tu piel.

De ti aprendió mi corazón,
de ti aprendió mi corazón,
y ahora no me reproches que no sepa darte amor,
que no sepa darte amor.

CORO:
Me h[A#]as enseñado tu,
tu has sido[Gm] mi maestra par[A]a hacer sufrir, [Gm]
Si[A#] alguna vez[A] fui malo, lo aprendí de [Dm]ti,
[D7]no digas que no entiendes como, pued[Gm]o ser asi,
Si [C#m7]te estoy haciendo daño niña, [Gm]lo aprendí de t[A]i,
Me[A#] has enseñado tu,
maldigo mi[Gm] inocencia, t[A]e maldigo a ti[Dm],
mald[D7]ita la maestra y maldito el ap[Gm]rendiz,
maldigo l[A]o que hago, maldi[Gm]go lo que[A] hago y te lo debo... [Dm]a ti.


e--------------10-10p9-9-9---9---|
B-8s10-10-10-10------------------|
G--------------------------------|
D--------------------------------|
A--------------------------------|
E--------------------------------|
e9-9s6-6-6--6-6s3-3-3s5-5----------------|
B-------------------------7-8-8h10p8-7-8-|
G----------------------------------------|
D----------------------------------------|
A----------------------------------------|
E----------------------------------------|
e---------------13-13-13-13-13-12-12-|
B--------7-8-10----------------------|
G-7-9-10-----------------------------|
D------------------------------------|
A------------------------------------|
E------------------------------------|
e-12-12-10-10-9-9p7-7-7-5-7--|
B----------------------------|
G----------------------------|
D----------------------------|
A----------------------------|
E----------------------------|				


Important: The song above is NOT stored on the Chordie server. The original song is hosted at www.guitaretab.com. Chordie works as a search engine and provides on-the-fly formatting. Chordie does not index songs against artists'/composers' will. To remove this song please click here.

Text color:
Chord color:
Chord grids: 
Font size:    
Page size: 

A A# Bb C C#m7 D7 Dm Gm
variations - click chord images

Login - add to songbook

Transpose chords

Tuning

Rating click stars to rate

Layout
Accuracy

SHARE PAGE  




You need to log in to post comments