The Pirates Gospel

Alela Diane

 Am
e|--------------------|
B|-1--1--1------1--1--|
G|-2--2--2------2--2--|
D|-2--2--2------2--2--|
A|0-----0------0------|
E|---0-----0-3----0---|


 Am
e|--------------------|
B|-1----1-1----1-1----|
G|-2--2---2--2---2----|
D|-2-2-2--2-2-2--2----|
A|0------0------0-----|
E|--------------------|


Picking verse :
 AmEm
e|------------------------------------------|
B|-1----1-1----1-1------0----0-0----0-0-----|
G|-2--2---2--2---2------0--0---0--0---0-----|
D|-2-2-2--2-2-2--2-2-0--2-2-2--2-2-2--2---0-|
A|0------0------0------2------2------2--2---|
E|------------------------------------------|


 AmEm
Grip your paddle strong for late night fording
 AmEm
While some folks row way up to heaven
 AmEm
I'm gonna sing the Pirate's Gospel
 AmEm
I'm gonna sew these feet for dancin'
 AmEm
I'm gonna keep my eyes wide open

Picking chorus :
 Am
e|---------------------------|
B|-1--1--1--1--1--1--1--1--1-|
G|-2--2--2--2--2--2--2--2--2-|
D|-2--2--2--2--2--2--2--2--2-|
A|0-----0--3--------0-----0--|
E|---0--------0--3-----3-----|


 AmAm
 Oh, oh, oh. Hum hum, hum hum, hum hum hum hum
 AmAm
 Yo Ho! Yo Ho! Yo Ho! Ho! Ho!
 AmAm
 Yo Ho! Yo Ho Ho! Yo Ho! Ho! Ho!
 Am
 Sing the Pirate's Gospel

 AmEm
Add another flame to our forest
 AmEm
Where big bellied whales keep us chanting
 AmEm
We're slapping fiery thighs for tiny dancers!
 AmEm
We be children creepin' till the morning
 AmEm
When the sun does seep into our fair flesh
 AmEm
And filthy finger nails will take us home

 AmAm
 Oh, oh, oh. Hum hum, hum hum, hum hum hum hum
 AmAm
 Yo Ho! Yo Ho! Yo Ho! Ho! Ho!
 AmAm
 Yo Ho! Yo Ho Ho! Yo Ho! Ho! Ho!
 Am
 Sing the Pirate's Gospel

 AmEm
While some folks pray their path to Jesus
 AmEm
We're gonna sing the Pirate's Gospel
 AmEm
We're gonna sew our feet for dancin'
 AmEm
We're gonna keep our eyes wide open
 AmEm
We're gonna sing the Pirate's Gospel
 AmEm
We're gonna Chant the Pirate's Gospel
 AmEm
You'll find us clap the Pirate's Gospel

 AmAm
 Oh, oh, oh. Hum hum, hum hum, hum hum hum hum
 AmAm
 Yo Ho! Yo Ho Ho! Yo Ho! Ho! Ho!
 AmAm
 Yo Ho! Yo Ho! Yo Ho! Ho! Ho!
 Am
 Sing the Pirate's Gospel
 Am
 Sing the Pirate's Gospel

Am Em
variations - click chord images
Transpose chords:
Tuning:
Cool service:
View: Size:
A  A  A
Rating:
Layout:
  • Currently 2.7/5 Stars.
  • 1
  • 2
  • 3
  • 4
  • 5
 
Accuracy:
  • Currently 2.9/5 Stars.
  • 1
  • 2
  • 3
  • 4
  • 5
 
click stars to rate
Chordie recommends:
Get acoustic guitar lessons and electric guitar lessons at JamPlay.com
Songbook:
Login to add this song to your songbook
Support the artist
Preview/buy this song
MSN Music
Why this non-profit ad?

 
login to add comments/video/corrections