Guitar Tabs, Chords and Lyrics


Apology   Alesana



Alesana-Apology
     This is my first tab So it might not be great but better than the other Apology 
tabs in Ultimate guitar so ya:
 Intro
Guitar 1
 e|---------------|
 B|---------------|
 G|---------------|
 D|--5~--7~--9~~--|X4
 A|--5~--7~--9~~--|
 D|--5~--7~--9~~--|

Guitar 2
 e|------------5---|
 B|--7----5--------|
 G|-----0----0----0|X30 around there its hard to count
 D|----------------|
 A|----------------|
 D|----------------|

   YOUR EVERYTHING TO ME!
   Verse
  Guitar 1
 e|-------------------------------------------------------|
 B|-------------------------------------------------------|
 G|-------------------------------------------------------|
 D|--555555-777777-999999-999999--------------------------|X3
 A|--555555-777777-999999-999999--------------------------|
 D|--555555-777777-999999-999999--------------------------|


 Guitar 2
   Lead Riff 1
 e|--------------------|       |--5--------|
 B|--------------------|       |--5---8-7--|X4
 G|-4p0-6p0-7p0--------|X7 Then|-----------|
 D|--------------------|       |-----------|
 A|--------------------|       |-----------|
 D|--------------------|       |-----------|

  Guitar 1

  |---------------|
  |---------------|
  |---------------|
  |-555555--777777|
  |-555555--777777|
  |-555555--777777|

   Guitar 1
    Verse Riff 2
   |---------------------------------|
   |---------------------------------|
   |---------------------------------|
   |9-9-9-9-9-9-9-5-5-5-5-5-7-7-7-7-7|X2  

Important: The song above is NOT stored on the Chordie server. The original song is hosted at www.guitaretab.com. Chordie works as a search engine and provides on-the-fly formatting. Chordie does not index songs against artists'/composers' will. To remove this song please click here.

This song is displayed as text-only. Transposing and tuning is only available for chordpro-songs.

Login - add to songbook

Rating click stars to rate

Layout
Accuracy

SHARE PAGE  




You need to log in to post comments