Que Eres Para Mi

Alex Campos

e)|---------|---------|---------|---------|

B)|-----0-1-|-----0-1-|-----0-1-|-----0-1-|
G)|---2-----|---2-----|---0-----|---0-----| X 2 veces
D)|---------|-3-------|---------|---------|
A)|-0-------|---------|-3-------|---------|
E)|---------|---------|---------|-3-------|

 AmFCG
No encuentro donde ir si tú no estas junto a 
| Am | F | C | G |
e)|---------|---------|---------|---------|
B)|-----0-1-|-----0-1-|-----0-1-|-----0-1-|
G)|---2-----|---2-----|---0-----|---0-----|
D)|---------|-3-------|---------|---------|
A)|-0-------|---------|-3-------|---------|
E)|---------|---------|---------|-3-------|


 AmFCG
No encuentro la salidas sin ti mi vida agoniza
| Am | F | C | G |
e)|---------|---------|---------|---------|
B)|-----0-1-|-----0-1-|-----0-1-|-----0-1-|
G)|---2-----|---2-----|---0-----|---0-----|
D)|---------|-3-------|---------|---------|
A)|-0-------|---------|-3-------|---------|
E)|---------|---------|---------|-3-------|


 AmFCG
No encuentro una voz que hable a mi vida
| Am | F | C | G |
e)|---------|---------|---------|---------|
B)|-----0-1-|-----0-1-|-----0-1-|-----0-1-|
G)|---2-----|---2-----|---0-----|---0-----|
D)|---------|-3-------|---------|---------|
A)|-0-------|---------|-3-------|---------|
E)|---------|---------|---------|-3-------|


 AmFCG
No encuentro unas manos que sanen mis heridas
| Am | F | C | G |
e)|---------|---------|---------|---------|
B)|-----0-1-|-----0-1-|-----0-1-|-----0-1-|
G)|---2-----|---2-----|---0-----|---0-----|
D)|---------|-3-------|---------|---------|
A)|-0-------|---------|-3-------|---------|
E)|---------|---------|---------|-3-------|


Coro
 A5F5
Aunque yo pienso que
 C5G5
 Tú no existías
 A5F5
Vengo a ti a buscar
 C5G5
 Aquella salida
 A5F5
Se muy bien, no lo 
 C5G5
Que eres para mí
 A5F5
Una amor, religión
 C5G5
O solo teoría
 AmFCG
No lo sé      

| Am | F | C | G |
e)|---------|---------|---------|---------|
B)|-----0-1-|-----0-1-|-----0-1-|-----0-1-|
G)|---2-----|---2-----|---0-----|---0-----|
D)|---------|-3-------|---------|---------|
A)|-0-------|---------|-3-------|---------|
E)|---------|---------|---------|-3-------|

| Am | F | C | Un rasgueo en G
e)|---------|---------|---------|
B)|-----0-1-|-----0-1-|-----0-1-|
G)|---2-----|---2-----|---0-----|
D)|---------|-3-------|---------|
A)|-0-------|---------|-3-------|
E)|---------|---------|---------|


 AmFCG
Religión se que es esa monotonía
| Am | F | C | G |
e)|---------|---------|---------|---------|
B)|-----0-1-|-----0-1-|-----0-1-|-----0-1-|
G)|---2-----|---2-----|---0-----|---0-----|
D)|---------|-3-------|---------|---------|
A)|-0-------|---------|-3-------|---------|
E)|---------|---------|---------|-3-------|


 AmFCG
Que el amor es aquel que dio así su vida
| Am | F | C | G |
e)|---------|---------|---------|---------|
B)|-----0-1-|-----0-1-|-----0-1-|-----0-1-|
G)|---2-----|---2-----|---0-----|---0-----|
D)|---------|-3-------|---------|---------|
A)|-0-------|---------|-3-------|---------|
E)|---------|---------|---------|-3-------|


 AmFCG
Aquí estoy, otra vez
| Am | F | C | G |
e)|---------|---------|---------|---------|
B)|-----0-1-|-----0-1-|-----0-1-|-----0-1-3-1-0|
G)|---2-----|---2-----|---0-----|---0-----|
D)|---------|-3-------|---------|---------|
A)|-0-------|---------|-3-------|---------|
E)|---------|---------|---------|-3-------|


 AmFCG
Con todas mis heridas que al igual son tus heridas.
| Am | F | C | G |
e)|---------|---------|---------|---------|
B)|-----0-1-|-----0-1-|-----0-1-|-----0-1-|
G)|---2-----|---2-----|---0-----|---0-----|
D)|---------|-3-------|---------|---------|
A)|-0-------|---------|-3-------|---------|
E)|---------|---------|---------|-3-------|


Coro
 A5F5
Aunque yo pienso que
 C5G5
 Tú no existías
 A5F5
Vengo a ti a buscar
 C5G5
 Aquella salida
 A5F5
Se muy bien, no lo 
 C5G5
Que eres para mí
 A5F5
Una amor, religión
 C5G5
O solo teoría

Puente:
 A5F5
Ven y entra a mi vida
 C5G5
Llena mi corazón
 A5F5
No más lagrimas mentiras
 C5G5
Cansado de eso yo estoy
 A5F5
Con un toque tuyo a mi vida
 C5G5
 Todo cambia
 A5F5
Apresúrate a salvarme
 C5G5A5F5C5G5
Mi Señor mi salvador, mi salvador        

Solo:

| |
e)|----8-8--12-8-10-10-10-12-13-12--10-10—10-|
B)|-10---------------------------------------|
G)|------------------------------------------|
D)|------------------------------------------|
A)|------------------------------------------|
E)|------------------------------------------|


| |
e)|--------------8-10-8-12--8-10-12-12-13-12----10-16-|
B)|-10-12-10-13------------------------------13-------|
G)|---------------------------------------------------|
D)|---------------------------------------------------|
A)|---------------------------------------------------|
E)|---------------------------------------------------|


Coro
 A5F5
Aunque yo pienso que
 C5G5
 Tú no existías
 A5F5
Vengo a ti a buscar
 C5G5
 Aquella salida
 A5F5
Se muy bien, no lo 
 C5G5
Que eres para mí
 A5F5
Una amor, religión
 C5G5
O solo teoría
 AmFCG
No lo sé      

| Am | F | C | G |
e)|---------|---------|---------|---------|
B)|-----0-1-|-----0-1-|-----0-1-|-----0-1-|
G)|---2-----|---2-----|---0-----|---0-----| X 2 veces
D)|---------|-3-------|---------|---------|
A)|-0-------|---------|-3-------|---------|
E)|---------|---------|---------|-3-------|


| Am |
e)|---------|
B)|-----0-1-|
G)|---2-----|
D)|---------|
A)|-0-------|
E)|---------|


A5 Am C C5 F F5 G G5
variations - click chord images
Transpose chords:
Tuning:
Cool service:
View: Size:
A  A  A
Rating:
Layout:
  • Currently 2.9/5 Stars.
  • 1
  • 2
  • 3
  • 4
  • 5
 
Accuracy:
  • Currently 3.4/5 Stars.
  • 1
  • 2
  • 3
  • 4
  • 5
 
click stars to rate
Chordie recommends:
Get acoustic guitar lessons and electric guitar lessons at JamPlay.com
Songbook:
Login to add this song to your songbook
Support the artist
Preview/buy this song
MSN Music
Why this non-profit ad?

 
login to add comments/video/corrections