Guitar Tabs, Chords and Lyrics


A Gritos De Esperanza  Alex Ubago

                                           [D]                                          
e|---------------------3----------------2--------0--2--3------2--------0--0-|
B|---------------3--0-----0--1--1h3-----------3------------0------0-3-------|
G|-0--2--2/4-------------------------------2-------------0------0-----------|
D|------------------------------------0----------------2------0-------------|
A|------------------------------------------------------------------2--3--3-|
E|------------3-------------------------------------------------------------|
e|--------------3-5---3----------7-----------2---------2---------2---0----|
B|-3h5p3-----3------3---3--7-----7-----3-----3-----3---3-----3---3---1-1--|
G|-------4-4---------------7-----------2-----------4---------4---------0--|
D|----------------------------5-----0--0--0--0----------------------------|
A|-------------------------5-----5--------------0--5-5-5--0--2-2-2-0-3-3--|
E|------------------------------------------------------------------------|


The intro can be kinda tricky, but with practice i know u will do it.. (:
El intro puede parecer un poco dificil, pero con practica se ke lo haras..

A pes[G]ar de que la l[D]una no br[Em]ille[Bm] mañ[C]ana,
me dará i[G]gual, solo verte r[D]eir es lo que me hace fe[Em]liz,[Bm]
mi[C] alma...

Y es ve[G]rdad que una mirada dis[D]tinta
o algun gesto más f[Em]rio[Bm] se c[C]lava
en mi [G]pecho, daga del desconc[D]ierto,
pero amor, [Em]ahí es[Bm]tá la [C]magia.
[C]Ahora que te veo niña[D], ya te echo de menos,
no ima[G]gino mis heridas si[Bm] algun dia te vas[Em] lejos.
Quer[C]ria por[D] esto...
[G]Que si preguntan por[D] mi
[Em]no les digas donde[Bm] fui,
que tu[C] alma sea fuerte
y cuando [D]mires hacia el frente
no re[G]cuerdes todo [Bm]lo que no te [Em]di.
Y es que q[C]uedan tantas cosas
por con[D]tarte y que me cuentes.
Tantos [G]ratos y [Bm]pasiones por [Em]vivir...
a tu [C]lado...mi[D] vida...
a tu [G]lado...  [D]    [Em]    [Bm]    [C]   [Bm]   [G]  [D]  [Em]   [C]  [D]
Solo:
e)------------10---8-7-5/7-5---5-7-8-5/7---------------------|
B)--------5-7-----------------------------5--7-8-8/10--------|
G)--4-5-7---------------------------------------------7-7----|
D)-----------------------------------------------------------|
A)-----------------------------------------------------------|
E)-----------------------------------------------------------|
e)-------7/8-8-8-8--7-5---------0-2-2/3-2-5--3---|
B)----------------------3---3-3------------------|
G)--7-7--8/9-9-9-9--7-5-------------------5--4---|
D)----------------------4------------------------|
A)-----------------------------------------------|
E)-----------------------------------------------|
e)--3-2-0--------------3-2-0/2-2---------------2-3-10-8-7--------|
B)----------3-3/5-5------------------------3-5------------10-8---|
G)--4-2-0--------------4-2-0/2-2-------4-5-----------------------|
D)----------4-4/5-5----------------5-7---------------------------|
A)---------------------------------------------------------------|
E)---------------------------------------------------------------|


Oja[G]lá, que nuestros[D] ojos si b[Em]rille[Bm]n ma[C]ñana,
que tu [G]voz siga pidiendome a g[D]ritos amor,
a g[Em]ritos [Bm]de espe[C]ranza.

[C]Y ahora que te tengo no pi[D]enso perder el tiempo
ni per[G]derme por mi ab[Bm]surdo ego [Em]ni un solo momento,
[C]se esfuma...el [D]miedo...
[G]Si preguntan por [D]mi
[Em]no les digas donde [Bm]fui,
que tu[C] alma sea fuerte
y cuando [D]mires hacia el frente
no rec[G]uerdes todo [Bm]lo que no te [Em]di.
Que tu [C]luz brille por siempre
porque [D]tu te lo mereces
y per[G]dona si algun [Bm]día preten[Em]
que no f[C]ueras...tu [D]misma...
[G]Y si preguntan por[D] ti,
[Em]solo diré que[Bm] te vi
en mis [C]sueños una noche y sólo [D]sueño desde entonces
para [G]verme cada [Bm]día junto a [Em]ti.
Y es que [C]quedan tantas cosas
por con[D]tarte y que me cuentes,
tantos [G]ratos y p[Bm]asiones por vi[Em]vir...
a tu [C]lado...mi [D]vida...
a tu [G]lado.[D].. [Em]   [Bm]   [C]    [G]

Important: The song above is NOT stored on the Chordie server. The original song is hosted at www.guitaretab.com. Chordie works as a search engine and provides on-the-fly formatting. Chordie does not index songs against artists'/composers' will. To remove this song please click here.

Text color:
Chord color:
Chord grids: 
Font size:    
Page size: 

Bm C D Em G
variations - click chord images

Login - add to songbook

Transpose chords

Tuning

Rating click stars to rate

Layout
Accuracy

SHARE PAGE  




You need to log in to post comments