Guitar Tabs, Chords and Lyrics


Que Pides Tu   Alex Ubago



Este es un buenisimo tema de Alex, llega bien profundo con su letra, espero que lo disfruten....


                              Alex Ubago-Que pides tu

NOTA:Las opciones en parentesis son opcionales, pero pruebenlas les aseguro que les 
agradable

Intro: Em(1)-C9(2)-G-D

Em(1)                C9(2)

e/---3---         e/---3---|
B/---3---         B/---3---|
G/---0---         G/---0---|
D/---2---         D/---2---|
A/---2---         A/---3---|
E/---0---         E/---0---|


Verso: G-Em(1)-C9(2)-D

Puede que algun dia por estas fechas
no recuerdes ya la letra
de aquel tema que compuse por ti
Puede que la vida sea tan breve
o que el tiempo no se acuerde
de evitar lo que nos toca vivir

Precoro: C9-D-Em(7)-Bm(7)-C(9)-D

NOTA: Traten de escuchar la guitarra del precoro, suena algo como esto, traten de descifrarlo

         C                   D                Em               Bm                C
E/-----------------/----------------/------------------/-------------------/-------------------------0---------------------|
B/---------------3-/-------------3--/---------------3--/---------------3---/--------------3----------------------3---------|
G/------0----------/------2---------/------0-----------/-------0-----------/------0-----------0----------0----------0------|
D/-----------2-----/--0------0------/-----------2------/-----------4-------/---------2------------2----------2----------2--|
A/--3--------------/----------------/------------------/--2----------------/--3--------------------------------------------|
E/-----------------/----------------/-0----------------/-------------------/-----------------------------------------------|

                    D
E/-------------------------------------------------------------|
B/-------------------------------------------------------------|
G/----------0------7-----------0-------0--------7--------------|
D/------4------4------4------------4-------4-------------------|
A/--5----------------------5-----------------------------------|
E/-------------------------------------------------------------|

Vuelve vuelve tarde pero vuelve
vuelve niña si te pierdes
hoy quiero verte
Y vuela vuela alto mientras puedas
que la vida es una rueda
que nunca frena no

Coro: Bm-C(2x)-D

Vives esperando un corazon extraño
que venga aqui
Y saque de tu cuerpo y tu alma
lo mejor de ti
Hoy siento que la vida
me muestra contigo
su lado azul
Y es todo lo que pido
por ser feliz
que pides tu
que pides tu

Intro: repite

Verso2: G-Em-C9-D

Puede que se muera en un instante
por el miedo a equivocarme
todo aquello por lo que un dia soñe
Puede que me lanze hacia el vacio
como un dia hice contigo
sin pensar lo que vendria despues

Precoro: repite

Coro: repite 2x

Final: Em(1)-C9(2)-G



Important: The song above is NOT stored on the Chordie server. The original song is hosted at www.guitaretab.com. Chordie works as a search engine and provides on-the-fly formatting. Chordie does not index songs against artists'/composers' will. To remove this song please click here.

This song is displayed as text-only. Transposing and tuning is only available for chordpro-songs.

Login - add to songbook

Rating click stars to rate

Layout
Accuracy

SHARE PAGE  




You need to log in to post comments