Guitar Tabs, Chords and Lyrics


Temblando  Alex Ubago

    [A]      [Asus4]            [D]          [E1]                                               
e-------------------|--------|-4-------|
B-------2---2-0-----|-----3--|-5-------|
G-----2---------2---|---2----|-4-------|
D---2-----2-------2-|-0------|---------|
B-0-----------------|--------|---------|
E-------------------|--------|-0-------|


[A]Temblando
co[D]n los o[E7]jos
[A]cerrados

[D]el cielo [E7]está [F#m7]nublado
[C#7]Y a lo lejos tu[1]
[A]Hablando
de[D] lo que t[E7]e ha
p[A]asado
int[D]entan[E7]do
       [F#m]                [F#m/F]                    [F#m/E]                 [F#mD#]                  
e-----------------|-----------------|-----------------|---------------|
B-------10---10---|-------10---10---|-------10---10---|-------10---10-|
G-----11----------|-----11----------|-----11----------|-----11--------|
D---11-----11-----|---11-----11-----|---11-----11-----|---11-----11---|
A-9-------9-----9-|-8-------8-----8-|-7-------7-----7-|---------------|
E-----------------|-----------------|-----------------|-11-----11-----|

Ordenar palabras para no hacerme tanto daño tanto daño

              [D]                        [Dm]                                        
   e-----------------10-|    |-10------10-13-17-17-|
   B---------10----10---|    |-10----10------15-15-|
   G-------11----11-----|    |-10--10--------------|
   D-----12----12-------|    |-12------------------|
   A---12---------------|    |-12------------------|
   E-10-----------------|    |-10------------------|

y yo sigo temblando ...

(solo)
e--------------------------------------------9s5h7----5-7-7h9-9s7-7s9--
B----------------9h10h9----------------------------5h7-----------------
G----------------------9h11h9-------7-9-9s11---------------------------
D-----7-9-9h11------------------7-9------------------------------------
A-7-9------------------------------------------------------------------
E----------------------------------------------------------------------
 --------------------------5-7-7s9-12----7s9-12-12s14s12-9-7s9s0------|
 -----7----------------5s7------------13------------------------------|
 ---------------------------------------------------------------------|
 -7-9---7s11-11-9-9-7-------------------------------------------------|
 ---------------------------------------------------------------------|
 ---------------------------------------------------------------------|


(d ahi sigue lo mismo)


De la mano y con mucho
cuidado
os besasteis en silencio
cuando no había luz

y me hace gracia
tu manera de
contarlo
como el que cuenta

que ha pensado
que ha decidido
que seguimos siendo amigos
y yo estoy temblando

y l[A]lorando

h[F#m]abría jurado que[D] nunca iba a [E]llorar
esc[A]uchando
ca[F#m]da palabra que [D]no quiero escu[E]char
desgarr[A]ándome, supli[F#m]cándote
i[D]ntentando hacerte r[E]ecordar
D Dm*
e------------------------|------------------------------------|
B------------------------|------------------------------------|
G------------------------|------------------------------------|
D----------------7-9hh16-|----------------------------9-12s16-|
A---------7-9h12---------|---------------------7-9s12---------|
E------------------------|------------------------------------|

pero tu ... solo dices ...

voy a col[A]gar...

Intro (2 veces)

D - D/C# - D/B - A*


Acordes:

A D E7 F#m C#m (1) Dm* D/C# D/B - A*

e-0-|-2-|-0-|-2-|-4-|-16-|-5-|-x-|--x--|-5-|
B-2-|-3-|-3-|-2-|-6-|-18-|-6-|-3-|--3--|-5-|
G-2-|-2-|-1-|-2-|-4-|-16-|-7-|-2-|--2--|-6-|
D-2-|-0-|-0-|-4-|-6-|----|-7-|-x-|--x--|-7-|
B-0-|-x-|-2-|-4-|-4-|----|-5-|-4-|--2--|-7-|
E---|-x-|-0-|-2-|-x-|----|-x-|-x-|--x--|-5-|


Important: The song above is NOT stored on the Chordie server. The original song is hosted at www.guitaretab.com. Chordie works as a search engine and provides on-the-fly formatting. Chordie does not index songs against artists'/composers' will. To remove this song please click here.

Text color:
Chord color:
Chord grids: 
Font size:    
Page size: 

A Asus4 C#7 D Dm E E7 F#m F#m/E F#m/F F#m7
variations - click chord images

Login - add to songbook

Transpose chords

Tuning

Rating click stars to rate

Layout
Accuracy

SHARE PAGE  




You need to log in to post comments