Guitar Tabs, Chords and Lyrics


Otro Dia Mas  Alex Ubago

  [C]           [G]   [F]         [G]       [C]    [G] [F] [G] [G] 
--0---1(1--3)3------------------0---1(1--3)3--------1-0---------------3---|
---------------1--3(3--5)5--------------------1---1-------------3---3-----|
------------------------------------------------1-------3-----4---4-------|
--------------------------------------------------------4---5-------------|
--------------------------------------------------------5-----------------|
--------------------------------------------------------------------------|



Son ya ma[C]s de las seis[G]
cuando lle[F]ga el despertar[C]
lleva hoy [Am]el mismos jersey [Em]
aunque a[F]lgún llanto de ma[G]s
tras lim[C]piar un poco el pol[G]vo
que h[F]a quedado en el hoga[C]r
limpia un p[Am]oco su fraca[Em]so
y sus [F]ganas de llora[G]r
Para ve[C]r como despiert[G]a
tan al[F]egre su pequeña[C]
si supi[Am]eras vida mi[Em]a
el dia[F] que nos esper[G]a
y en su realid[C]ad vera crec[G]er la ciuda[F]d
y sus ge[G]ntes en sus mundo[C]s
[G]iran y vendra[F]n
mien[G]tras ella en su pap[C]el
seguir[G]a viendo pas[C]ar
otro di[G]a menos en[C] su vida
[G]otro dia m[F]as... ot[G]ro dia mas [C]
    [C]           [G]   [F]          [G]        [G] 
 |--0---1(1--3)3--------1-0---------------3---|
 |----------------1---1-------------3---3-----|
 |------------------1-------3-----4---4-------|
 |--------------------------4---5-------------|
 |--------------------------5-----------------|
 |--------------------------------------------|



fue el dolo[C]r que me di[G]o los conse[F]jos para ama[C]r
al mira[Am]r al corazó[Em]n y jam[F]as mirar atrá[G]s
pero a vec[C]es la injustici[G]a se hace co[F]n todo el contro[C]l
y en las esq[Am]uina del poc[Em]ara puede [F]vernos a los dos[G]
yo brom[C]eo con mi gente[G]
esta ta[F]rde pago y[C]o
mientras e[Am]lla ve que al[Em]go
[F]va muriendo en su inter[G]ior
y en su realid[C]ad vera crec[G]er la ciuda[F]d
y sus ge[G]ntes en sus mundo[C]s
[G]iran y vendra[F]n
mien[G]tras ella en su pap[C]el
seguir[G]a viendo pas[C]ar
otro di[G]a menos en[C] su vida
[G]otro dia m[F]as... [G]
...y en su rea[C]lidad vera c[G]recer la ci[F]udad
y sus ge[G]ntes en sus mundo[C]s
[G]iran y vendra[F]n
mien[G]tras ella en su pap[C]el
seguir[G]a viendo pas[C]ar
otro di[G]a menos en[C] su vida
[G]otro dia m[F]as... ot[G]ro dia mas [C]
    [C]           [G]   [F]          [G]        [G] [C] 
 |--0---1(1--3)3--------1-0---------------3---0--|
 |----------------1---1-------------3---3-----1--|
 |------------------1-------3-----4---4-------0--|
 |--------------------------4---5-------------2--|
 |--------------------------5-----------------3--|
 |--------------------------------------------0--|



Important: The song above is NOT stored on the Chordie server. The original song is hosted at www.guitaretab.com. Chordie works as a search engine and provides on-the-fly formatting. Chordie does not index songs against artists'/composers' will. To remove this song please click here.

Text color:
Chord color:
Chord grids: 
Font size:    
Page size: 

Am C Em F G
variations - click chord images

Login - add to songbook

Transpose chords

Tuning

Rating click stars to rate

Layout
Accuracy

SHARE PAGE  




You need to log in to post comments